  0
SECTION
  2
HEADER
  9
$ACADVER
  1
AC1015
  9
$ACADMAINTVER
 70
     6
  9
$DWGCODEPAGE
  3
ANSI_1254
  9
$INSBASE
 10
0.0
 20
0.0
 30
0.0
  9
$EXTMIN
 10
0.0
 20
0.0
 30
0.0
  9
$EXTMAX
 10
279.4
 20
215.9
 30
0.0
  9
$LIMMIN
 10
0.0
 20
0.0
  9
$LIMMAX
 10
279.4
 20
215.9
  9
$ORTHOMODE
 70
     0
  9
$REGENMODE
 70
     1
  9
$FILLMODE
 70
     1
  9
$QTEXTMODE
 70
     0
  9
$MIRRTEXT
 70
     1
  9
$LTSCALE
 40
1.0
  9
$ATTMODE
 70
     1
  9
$TEXTSIZE
 40
3.5
  9
$TRACEWID
 40
1.0
  9
$TEXTSTYLE
  7
Standard
  9
$CLAYER
  8
0
  9
$CELTYPE
  6
ByLayer
  9
$CECOLOR
 62
   256
  9
$CELTSCALE
 40
1.0
  9
$DISPSILH
 70
     0
  9
$DIMSCALE
 40
1.0
  9
$DIMASZ
 40
3.5
  9
$DIMEXO
 40
1.0
  9
$DIMDLI
 40
3.75
  9
$DIMRND
 40
0.0
  9
$DIMDLE
 40
0.0
  9
$DIMEXE
 40
1.0
  9
$DIMTP
 40
0.0
  9
$DIMTM
 40
0.0
  9
$DIMTXT
 40
3.5
  9
$DIMCEN
 40
2.5
  9
$DIMTSZ
 40
0.0
  9
$DIMTOL
 70
     0
  9
$DIMLIM
 70
     0
  9
$DIMTIH
 70
     1
  9
$DIMTOH
 70
     1
  9
$DIMSE1
 70
     0
  9
$DIMSE2
 70
     0
  9
$DIMTAD
 70
     1
  9
$DIMZIN
 70
     0
  9
$DIMBLK
  1

  9
$DIMASO
 70
     1
  9
$DIMSHO
 70
     1
  9
$DIMPOST
  1

  9
$DIMAPOST
  1

  9
$DIMALT
 70
     0
  9
$DIMALTD
 70
     3
  9
$DIMALTF
 40
0.0393700787
  9
$DIMLFAC
 40
1.0
  9
$DIMTOFL
 70
     1
  9
$DIMTVP
 40
0.0
  9
$DIMTIX
 70
     0
  9
$DIMSOXD
 70
     0
  9
$DIMSAH
 70
     0
  9
$DIMBLK1
  1

  9
$DIMBLK2
  1

  9
$DIMSTYLE
  2
ISO-25
  9
$DIMCLRD
 70
     0
  9
$DIMCLRE
 70
     0
  9
$DIMCLRT
 70
     0
  9
$DIMTFAC
 40
1.0
  9
$DIMGAP
 40
1.524
  9
$DIMJUST
 70
     0
  9
$DIMSD1
 70
     0
  9
$DIMSD2
 70
     0
  9
$DIMTOLJ
 70
     0
  9
$DIMTZIN
 70
     0
  9
$DIMALTZ
 70
     0
  9
$DIMALTTZ
 70
     0
  9
$DIMUPT
 70
     0
  9
$DIMDEC
 70
     2
  9
$DIMTDEC
 70
     2
  9
$DIMALTU
 70
     2
  9
$DIMALTTD
 70
     3
  9
$DIMTXSTY
  7
Standard
  9
$DIMAUNIT
 70
     0
  9
$DIMADEC
 70
     2
  9
$DIMALTRND
 40
0.0
  9
$DIMAZIN
 70
     0
  9
$DIMDSEP
 70
    44
  9
$DIMATFIT
 70
     3
  9
$DIMFRAC
 70
     0
  9
$DIMLDRBLK
  1

  9
$DIMLUNIT
 70
     2
  9
$DIMLWD
 70
    -2
  9
$DIMLWE
 70
    -2
  9
$DIMTMOVE
 70
     0
  9
$LUNITS
 70
     2
  9
$LUPREC
 70
     2
  9
$SKETCHINC
 40
1.0
  9
$FILLETRAD
 40
10.0
  9
$AUNITS
 70
     0
  9
$AUPREC
 70
     2
  9
$MENU
  1
.
  9
$ELEVATION
 40
0.0
  9
$PELEVATION
 40
0.0
  9
$THICKNESS
 40
0.0
  9
$LIMCHECK
 70
     0
  9
$CHAMFERA
 40
0.0
  9
$CHAMFERB
 40
0.0
  9
$CHAMFERC
 40
0.0
  9
$CHAMFERD
 40
0.0
  9
$SKPOLY
 70
     0
  9
$TDCREATE
 40
2459741.60965735
  9
$TDUCREATE
 40
2459741.48465735
  9
$TDUPDATE
 40
2459741.609657523
  9
$TDUUPDATE
 40
2459741.484657523
  9
$TDINDWG
 40
0.0000000116
  9
$TDUSRTIMER
 40
0.0000000116
  9
$USRTIMER
 70
     1
  9
$ANGBASE
 50
0.0
  9
$ANGDIR
 70
     0
  9
$PDMODE
 70
     0
  9
$PDSIZE
 40
-1.0
  9
$PLINEWID
 40
0.0
  9
$SPLFRAME
 70
     0
  9
$SPLINETYPE
 70
     6
  9
$SPLINESEGS
 70
     8
  9
$HANDSEED
  5
12E
  9
$SURFTAB1
 70
     6
  9
$SURFTAB2
 70
     6
  9
$SURFTYPE
 70
     6
  9
$SURFU
 70
     6
  9
$SURFV
 70
     6
  9
$UCSBASE
  2

  9
$UCSNAME
  2

  9
$UCSORG
 10
0.0
 20
0.0
 30
0.0
  9
$UCSXDIR
 10
1.0
 20
0.0
 30
0.0
  9
$UCSYDIR
 10
0.0
 20
1.0
 30
0.0
  9
$UCSORTHOREF
  2

  9
$UCSORTHOVIEW
 70
     0
  9
$UCSORGTOP
 10
0.0
 20
0.0
 30
0.0
  9
$UCSORGBOTTOM
 10
0.0
 20
0.0
 30
0.0
  9
$UCSORGLEFT
 10
0.0
 20
0.0
 30
0.0
  9
$UCSORGRIGHT
 10
0.0
 20
0.0
 30
0.0
  9
$UCSORGFRONT
 10
0.0
 20
0.0
 30
0.0
  9
$UCSORGBACK
 10
0.0
 20
0.0
 30
0.0
  9
$PUCSBASE
  2

  9
$PUCSNAME
  2

  9
$PUCSORG
 10
0.0
 20
0.0
 30
0.0
  9
$PUCSXDIR
 10
1.0
 20
0.0
 30
0.0
  9
$PUCSYDIR
 10
0.0
 20
1.0
 30
0.0
  9
$PUCSORTHOREF
  2

  9
$PUCSORTHOVIEW
 70
     0
  9
$PUCSORGTOP
 10
0.0
 20
0.0
 30
0.0
  9
$PUCSORGBOTTOM
 10
0.0
 20
0.0
 30
0.0
  9
$PUCSORGLEFT
 10
0.0
 20
0.0
 30
0.0
  9
$PUCSORGRIGHT
 10
0.0
 20
0.0
 30
0.0
  9
$PUCSORGFRONT
 10
0.0
 20
0.0
 30
0.0
  9
$PUCSORGBACK
 10
0.0
 20
0.0
 30
0.0
  9
$USERI1
 70
     0
  9
$USERI2
 70
     0
  9
$USERI3
 70
     0
  9
$USERI4
 70
     0
  9
$USERI5
 70
     0
  9
$USERR1
 40
0.0
  9
$USERR2
 40
0.0
  9
$USERR3
 40
0.0
  9
$USERR4
 40
0.0
  9
$USERR5
 40
0.0
  9
$WORLDVIEW
 70
     1
  9
$SHADEDGE
 70
     3
  9
$SHADEDIF
 70
    70
  9
$TILEMODE
 70
     1
  9
$MAXACTVP
 70
    64
  9
$PINSBASE
 10
0.0
 20
0.0
 30
0.0
  9
$PLIMCHECK
 70
     0
  9
$PEXTMIN
 10
1.0000000000E+20
 20
1.0000000000E+20
 30
1.0000000000E+20
  9
$PEXTMAX
 10
-1.0000000000E+20
 20
-1.0000000000E+20
 30
-1.0000000000E+20
  9
$PLIMMIN
 10
0.0
 20
0.0
  9
$PLIMMAX
 10
420.0
 20
297.0
  9
$UNITMODE
 70
     0
  9
$VISRETAIN
 70
     1
  9
$PLINEGEN
 70
     0
  9
$PSLTSCALE
 70
     1
  9
$TREEDEPTH
 70
  3020
  9
$CMLSTYLE
  2
Standard
  9
$CMLJUST
 70
     0
  9
$CMLSCALE
 40
20.0
  9
$PROXYGRAPHICS
 70
     1
  9
$MEASUREMENT
 70
     1
  9
$CELWEIGHT
370
    -1
  9
$ENDCAPS
280
     0
  9
$JOINSTYLE
280
     0
  9
$LWDISPLAY
290
     1
  9
$INSUNITS
 70
     4
  9
$HYPERLINKBASE
  1

  9
$STYLESHEET
  1

  9
$XEDIT
290
     1
  9
$CEPSNTYPE
380
     0
  9
$PSTYLEMODE
290
     1
  9
$FINGERPRINTGUID
  2
{5cb01f67-a216-4466-8f5f-f9fcb337d5de}
  9
$VERSIONGUID
  2
{FAEB1C32-E019-11D5-929B-00C0DF256EC4}
  9
$EXTNAMES
290
     1
  9
$PSVPSCALE
 40
0.0
  9
$OLESTARTUP
290
     0
  0
ENDSEC
  0
SECTION
  2
CLASSES
  0
CLASS
  1
ACDBDICTIONARYWDFLT
  2
AcDbDictionaryWithDefault
  3
ObjectDBX Classes
 90
        0
280
     0
281
     0
  0
CLASS
  1
VISUALSTYLE
  2
AcDbVisualStyle
  3
ObjectDBX Classes
 90
     4095
280
     0
281
     0
  0
CLASS
  1
MATERIAL
  2
AcDbMaterial
  3
ObjectDBX Classes
 90
     1153
280
     0
281
     0
  0
CLASS
  1
SCALE
  2
AcDbScale
  3
ObjectDBX Classes
 90
     1153
280
     0
281
     0
  0
CLASS
  1
TABLESTYLE
  2
AcDbTableStyle
  3
ObjectDBX Classes
 90
     4095
280
     0
281
     0
  0
CLASS
  1
MLEADERSTYLE
  2
AcDbMLeaderStyle
  3
ACDB_MLEADERSTYLE_CLASS
 90
     4095
280
     0
281
     0
  0
CLASS
  1
SUN
  2
AcDbSun
  3
SCENEOE
 90
     1153
280
     0
281
     0
  0
CLASS
  1
ACDBPLACEHOLDER
  2
AcDbPlaceHolder
  3
ObjectDBX Classes
 90
        0
280
     0
281
     0
  0
CLASS
  1
LAYOUT
  2
AcDbLayout
  3
ObjectDBX Classes
 90
        0
280
     0
281
     0
  0
ENDSEC
  0
SECTION
  2
TABLES
  0
TABLE
  2
VPORT
  5
8
330
0
100
AcDbSymbolTable
 70
     1
  0
VPORT
  5
29
330
8
100
AcDbSymbolTableRecord
100
AcDbViewportTableRecord
  2
*Active
 70
     0
 10
0.0
 20
0.0
 11
1.0
 21
1.0
 12
139.7
 22
107.95
 13
0.0
 23
0.0
 14
10.0
 24
10.0
 15
10.0
 25
10.0
 16
0.0
 26
0.0
 36
1.0
 17
0.0
 27
0.0
 37
0.0
 40
215.9
 41
1.2941176471
 42
50.0
 43
0.0
 44
0.0
 50
0.0
 51
0.0
 71
     0
 72
  2000
 73
     1
 74
     3
 75
     0
 76
     0
 77
     0
 78
     0
281
     0
 65
     1
110
0.0
120
0.0
130
0.0
111
1.0
121
0.0
131
0.0
112
0.0
122
1.0
132
0.0
 79
     0
146
0.0
  0
ENDTAB
  0
TABLE
  2
LTYPE
  5
5
330
0
100
AcDbSymbolTable
 70
     6
  0
LTYPE
  5
14
330
5
100
AcDbSymbolTableRecord
100
AcDbLinetypeTableRecord
  2
ByBlock
 70
     0
  3

 72
    65
 73
     0
 40
0.0
  0
LTYPE
  5
15
330
5
100
AcDbSymbolTableRecord
100
AcDbLinetypeTableRecord
  2
ByLayer
 70
     0
  3

 72
    65
 73
     0
 40
0.0
  0
LTYPE
  5
16
330
5
100
AcDbSymbolTableRecord
100
AcDbLinetypeTableRecord
  2
Continuous
 70
     0
  3
Solid line
 72
    65
 73
     0
 40
0.0
  0
LTYPE
  5
6E
330
5
100
AcDbSymbolTableRecord
100
AcDbLinetypeTableRecord
  2
HIDDEN
 70
     0
  3
Hidden __ __ __ __ __ __ __ __ __ __ __ __ __ __
 72
    65
 73
     2
 40
1.905
 49
1.27
 74
     0
 49
-0.635
 74
     0
  0
LTYPE
  5
6F
330
5
100
AcDbSymbolTableRecord
100
AcDbLinetypeTableRecord
  2
PHANTOM
 70
     0
  3
Phantom ______  __  __  ______  __  __  ______
 72
    65
 73
     6
 40
12.7
 49
6.35
 74
     0
 49
-1.27
 74
     0
 49
1.27
 74
     0
 49
-1.27
 74
     0
 49
1.27
 74
     0
 49
-1.27
 74
     0
  0
LTYPE
  5
70
330
5
100
AcDbSymbolTableRecord
100
AcDbLinetypeTableRecord
  2
CENTER
 70
     0
  3
Center ____ _ ____ _ ____ _ ____ _ ____ _ ____
 72
    65
 73
     4
 40
10.16
 49
6.35
 74
     0
 49
-1.27
 74
     0
 49
1.27
 74
     0
 49
-1.27
 74
     0
  0
LTYPE
  5
71
330
5
100
AcDbSymbolTableRecord
100
AcDbLinetypeTableRecord
  2
CENTERX2
 70
     0
  3
Center (2x) ________  __  ________  __  _____
 72
    65
 73
     4
 40
20.32
 49
12.7
 74
     0
 49
-2.54
 74
     0
 49
2.54
 74
     0
 49
-2.54
 74
     0
  0
LTYPE
  5
72
330
5
100
AcDbSymbolTableRecord
100
AcDbLinetypeTableRecord
  2
DOT2
 70
     0
  3
Dot (.5x) ........................................
 72
    65
 73
     2
 40
0.635
 49
0.0
 74
     0
 49
-0.635
 74
     0
  0
ENDTAB
  0
TABLE
  2
LAYER
  5
2
330
0
100
AcDbSymbolTable
 70
    17
  0
LAYER
  5
10
330
2
100
AcDbSymbolTableRecord
100
AcDbLayerTableRecord
  2
0
 70
     0
 62
     7
  6
Continuous
370
    -3
390
F
  0
LAYER
  5
73
330
2
100
AcDbSymbolTableRecord
100
AcDbLayerTableRecord
  2
FORMAT
 70
     0
 62
     7
  6
Continuous
370
    -3
390
F
  0
LAYER
  5
74
330
2
100
AcDbSymbolTableRecord
100
AcDbLayerTableRecord
  2
YARDIMCI_GEOMETRI
 70
     0
 62
    -6
  6
Continuous
290
     0
370
    -3
390
F
  0
LAYER
  5
75
330
2
100
AcDbSymbolTableRecord
100
AcDbLayerTableRecord
  2
SAYFA_CERCEVESI
 70
     0
 62
     7
  6
Continuous
370
    25
390
F
  0
LAYER
  5
76
330
2
100
AcDbSymbolTableRecord
100
AcDbLayerTableRecord
  2
ANTET
 70
     0
 62
     7
  6
Continuous
370
    -3
390
F
  0
LAYER
  5
77
330
2
100
AcDbSymbolTableRecord
100
AcDbLayerTableRecord
  2
OLCU
 70
     0
 62
   150
  6
Continuous
370
    -3
390
F
  0
LAYER
  5
78
330
2
100
AcDbSymbolTableRecord
100
AcDbLayerTableRecord
  2
METIN
 70
     0
 62
    96
  6
Continuous
370
    -3
390
F
  0
LAYER
  5
79
330
2
100
AcDbSymbolTableRecord
100
AcDbLayerTableRecord
  2
BALON
 70
     0
 62
     5
  6
Continuous
370
    -3
390
F
  0
LAYER
  5
7A
330
2
100
AcDbSymbolTableRecord
100
AcDbLayerTableRecord
  2
VURGU
 70
     0
 62
     7
  6
Continuous
370
    -3
390
F
  0
LAYER
  5
7B
330
2
100
AcDbSymbolTableRecord
100
AcDbLayerTableRecord
  2
SILIK
 70
     0
 62
     7
  6
Continuous
370
    -3
390
F
  0
LAYER
  5
7C
330
2
100
AcDbSymbolTableRecord
100
AcDbLayerTableRecord
  2
MODEL
 70
     0
 62
     7
  6
Continuous
370
    -3
390
F
  0
LAYER
  5
7D
330
2
100
AcDbSymbolTableRecord
100
AcDbLayerTableRecord
  2
DETAYLANDıRMA
 70
     0
 62
   190
  6
Continuous
370
    -3
390
F
  0
LAYER
  5
7E
330
2
100
AcDbSymbolTableRecord
100
AcDbLayerTableRecord
  2
TOLERANS
 70
     0
 62
   230
  6
Continuous
370
    -3
390
F
  0
LAYER
  5
7F
330
2
100
AcDbSymbolTableRecord
100
AcDbLayerTableRecord
  2
MERKEZ_CIZGILERI
 70
     0
 62
    30
  6
Continuous
370
    -3
390
F
  0
LAYER
  5
80
330
2
100
AcDbSymbolTableRecord
100
AcDbLayerTableRecord
  2
KESIT-DETAY_CIZGILERI
 70
     0
 62
     7
  6
Continuous
370
    -3
390
F
  0
LAYER
  5
81
330
2
100
AcDbSymbolTableRecord
100
AcDbLayerTableRecord
  2
\U+041E\U+0421\U+0415\U+0412\U+042B\U+0415
 70
     0
 62
     7
  6
Continuous
370
    -3
390
F
  0
LAYER
  5
82
330
2
100
AcDbSymbolTableRecord
100
AcDbLayerTableRecord
  2
\U+0412\U+041E\U+0414\U+042F\U+041D\U+042B\U+0415_\U+0417\U+041D\U+0410\U+041A\U+0418
 70
     0
 62
    11
  6
Continuous
370
    -3
390
F
  0
ENDTAB
  0
TABLE
  2
STYLE
  5
3
330
0
100
AcDbSymbolTable
 70
     1
  0
STYLE
  5
11
330
3
100
AcDbSymbolTableRecord
100
AcDbTextStyleTableRecord
  2
Standard
 70
     0
 40
0.0
 41
1.0
 50
0.0
 71
     0
 42
3.5
  3
txt
  4

  0
ENDTAB
  0
TABLE
  2
VIEW
  5
6
330
0
100
AcDbSymbolTable
 70
     0
  0
ENDTAB
  0
TABLE
  2
UCS
  5
7
330
0
100
AcDbSymbolTable
 70
     0
  0
ENDTAB
  0
TABLE
  2
APPID
  5
9
330
0
100
AcDbSymbolTable
 70
     1
  0
APPID
  5
12
330
9
100
AcDbSymbolTableRecord
100
AcDbRegAppTableRecord
  2
ACAD
 70
     0
  0
ENDTAB
  0
TABLE
  2
DIMSTYLE
  5
A
330
0
100
AcDbSymbolTable
 70
     1
100
AcDbDimStyleTable
  0
DIMSTYLE
105
27
330
A
100
AcDbSymbolTableRecord
100
AcDbDimStyleTableRecord
  2
ISO-25
 70
     0
 41
2.5
 42
0.625
 43
3.75
 44
1.25
 73
     0
 74
     0
 77
     1
 78
     8
140
2.5
141
2.5
143
0.0393700787
147
0.625
171
     3
172
     1
178
     0
271
     2
272
     2
274
     3
278
    44
283
     0
284
     8
340
11
  0
ENDTAB
  0
TABLE
  2
BLOCK_RECORD
  5
1
330
0
100
AcDbSymbolTable
 70
     4
  0
BLOCK_RECORD
  5
1F
330
1
100
AcDbSymbolTableRecord
100
AcDbBlockTableRecord
  2
*Model_Space
340
22
  0
BLOCK_RECORD
  5
1B
330
1
100
AcDbSymbolTableRecord
100
AcDbBlockTableRecord
  2
*Paper_Space
340
1E
  0
BLOCK_RECORD
  5
23
330
1
100
AcDbSymbolTableRecord
100
AcDbBlockTableRecord
  2
*Paper_Space0
340
26
  0
BLOCK_RECORD
  5
8E
330
1
100
AcDbSymbolTableRecord
100
AcDbBlockTableRecord
  2
SW_CENTERMARKSYMBOL_0
340
0
102
{BLKREFS
331
99
102
}
  0
BLOCK_RECORD
  5
C8
330
1
100
AcDbSymbolTableRecord
100
AcDbBlockTableRecord
  2
SW_CENTERMARKSYMBOL_1
340
0
102
{BLKREFS
331
D3
102
}
  0
BLOCK_RECORD
  5
D4
330
1
100
AcDbSymbolTableRecord
100
AcDbBlockTableRecord
  2
SW_CENTERMARKSYMBOL_2
340
0
102
{BLKREFS
331
DF
102
}
  0
ENDTAB
  0
ENDSEC
  0
SECTION
  2
BLOCKS
  0
BLOCK
  5
20
330
1F
100
AcDbEntity
  8
0
100
AcDbBlockBegin
  2
*Model_Space
 70
     0
 10
0.0
 20
0.0
 30
0.0
  3
*Model_Space
  1

  0
ENDBLK
  5
21
330
1F
100
AcDbEntity
  8
0
100
AcDbBlockEnd
  0
BLOCK
  5
1C
330
1B
100
AcDbEntity
 67
     1
  8
0
100
AcDbBlockBegin
  2
*Paper_Space
 70
     0
 10
0.0
 20
0.0
 30
0.0
  3
*Paper_Space
  1

  0
ENDBLK
  5
1D
330
1B
100
AcDbEntity
 67
     1
  8
0
100
AcDbBlockEnd
  0
BLOCK
  5
24
330
23
100
AcDbEntity
  8
0
100
AcDbBlockBegin
  2
*Paper_Space0
 70
     0
 10
0.0
 20
0.0
 30
0.0
  3
*Paper_Space0
  1

  0
ENDBLK
  5
25
330
23
100
AcDbEntity
  8
0
100
AcDbBlockEnd
  0
BLOCK
  5
8F
330
8E
100
AcDbEntity
  8
0
100
AcDbBlockBegin
  2
SW_CENTERMARKSYMBOL_0
 70
     0
 10
0.0
 20
0.0
 30
0.0
  3
SW_CENTERMARKSYMBOL_0
  1

  0
LINE
  5
91
330
8E
100
AcDbEntity
  8
FORMAT
 62
     0
100
AcDbLine
 10
0.0
 20
0.0
 30
0.0
 11
0.0
 21
2.5
 31
0.0
  0
LINE
  5
92
330
8E
100
AcDbEntity
  8
FORMAT
 62
     0
100
AcDbLine
 10
0.0
 20
0.0
 30
0.0
 11
-2.5
 21
0.0
 31
0.0
  0
LINE
  5
93
330
8E
100
AcDbEntity
  8
FORMAT
 62
     0
100
AcDbLine
 10
0.0
 20
0.0
 30
0.0
 11
0.0
 21
-2.5
 31
0.0
  0
LINE
  5
94
330
8E
100
AcDbEntity
  8
FORMAT
 62
     0
100
AcDbLine
 10
0.0
 20
0.0
 30
0.0
 11
2.5
 21
0.0
 31
0.0
  0
LINE
  5
95
330
8E
100
AcDbEntity
  8
FORMAT
 62
     0
100
AcDbLine
 10
0.0
 20
5.0
 30
0.0
 11
0.0
 21
19.5
 31
0.0
  0
LINE
  5
96
330
8E
100
AcDbEntity
  8
FORMAT
 62
     0
100
AcDbLine
 10
-5.0
 20
0.0
 30
0.0
 11
-19.5
 21
0.0
 31
0.0
  0
LINE
  5
97
330
8E
100
AcDbEntity
  8
FORMAT
 62
     0
100
AcDbLine
 10
0.0
 20
-5.0
 30
0.0
 11
0.0
 21
-19.5
 31
0.0
  0
LINE
  5
98
330
8E
100
AcDbEntity
  8
FORMAT
 62
     0
100
AcDbLine
 10
5.0
 20
0.0
 30
0.0
 11
19.5
 21
0.0
 31
0.0
  0
ENDBLK
  5
90
330
8E
100
AcDbEntity
  8
0
100
AcDbBlockEnd
  0
BLOCK
  5
C9
330
C8
100
AcDbEntity
  8
0
100
AcDbBlockBegin
  2
SW_CENTERMARKSYMBOL_1
 70
     0
 10
0.0
 20
0.0
 30
0.0
  3
SW_CENTERMARKSYMBOL_1
  1

  0
LINE
  5
CB
330
C8
100
AcDbEntity
  8
FORMAT
 62
     0
100
AcDbLine
 10
0.0
 20
0.0
 30
0.0
 11
0.0
 21
2.5
 31
0.0
  0
LINE
  5
CC
330
C8
100
AcDbEntity
  8
FORMAT
 62
     0
100
AcDbLine
 10
0.0
 20
0.0
 30
0.0
 11
-2.5
 21
0.0
 31
0.0
  0
LINE
  5
CD
330
C8
100
AcDbEntity
  8
FORMAT
 62
     0
100
AcDbLine
 10
0.0
 20
0.0
 30
0.0
 11
0.0
 21
-2.5
 31
0.0
  0
LINE
  5
CE
330
C8
100
AcDbEntity
  8
FORMAT
 62
     0
100
AcDbLine
 10
0.0
 20
0.0
 30
0.0
 11
2.5
 21
0.0
 31
0.0
  0
LINE
  5
CF
330
C8
100
AcDbEntity
  8
FORMAT
 62
     0
100
AcDbLine
 10
0.0
 20
5.0
 30
0.0
 11
0.0
 21
9.5
 31
0.0
  0
LINE
  5
D0
330
C8
100
AcDbEntity
  8
FORMAT
 62
     0
100
AcDbLine
 10
-5.0
 20
0.0
 30
0.0
 11
-9.5
 21
0.0
 31
0.0
  0
LINE
  5
D1
330
C8
100
AcDbEntity
  8
FORMAT
 62
     0
100
AcDbLine
 10
0.0
 20
-5.0
 30
0.0
 11
0.0
 21
-9.5
 31
0.0
  0
LINE
  5
D2
330
C8
100
AcDbEntity
  8
FORMAT
 62
     0
100
AcDbLine
 10
5.0
 20
0.0
 30
0.0
 11
9.5
 21
0.0
 31
0.0
  0
ENDBLK
  5
CA
330
C8
100
AcDbEntity
  8
0
100
AcDbBlockEnd
  0
BLOCK
  5
D5
330
D4
100
AcDbEntity
  8
0
100
AcDbBlockBegin
  2
SW_CENTERMARKSYMBOL_2
 70
     0
 10
0.0
 20
0.0
 30
0.0
  3
SW_CENTERMARKSYMBOL_2
  1

  0
LINE
  5
D7
330
D4
100
AcDbEntity
  8
FORMAT
 62
     0
100
AcDbLine
 10
0.0
 20
0.0
 30
0.0
 11
0.0
 21
2.5
 31
0.0
  0
LINE
  5
D8
330
D4
100
AcDbEntity
  8
FORMAT
 62
     0
100
AcDbLine
 10
0.0
 20
0.0
 30
0.0
 11
-2.5
 21
0.0
 31
0.0
  0
LINE
  5
D9
330
D4
100
AcDbEntity
  8
FORMAT
 62
     0
100
AcDbLine
 10
0.0
 20
0.0
 30
0.0
 11
0.0
 21
-2.5
 31
0.0
  0
LINE
  5
DA
330
D4
100
AcDbEntity
  8
FORMAT
 62
     0
100
AcDbLine
 10
0.0
 20
0.0
 30
0.0
 11
2.5
 21
0.0
 31
0.0
  0
LINE
  5
DB
330
D4
100
AcDbEntity
  8
FORMAT
 62
     0
100
AcDbLine
 10
0.0
 20
5.0
 30
0.0
 11
0.0
 21
9.5
 31
0.0
  0
LINE
  5
DC
330
D4
100
AcDbEntity
  8
FORMAT
 62
     0
100
AcDbLine
 10
-5.0
 20
0.0
 30
0.0
 11
-9.5
 21
0.0
 31
0.0
  0
LINE
  5
DD
330
D4
100
AcDbEntity
  8
FORMAT
 62
     0
100
AcDbLine
 10
0.0
 20
-5.0
 30
0.0
 11
0.0
 21
-9.5
 31
0.0
  0
LINE
  5
DE
330
D4
100
AcDbEntity
  8
FORMAT
 62
     0
100
AcDbLine
 10
5.0
 20
0.0
 30
0.0
 11
9.5
 21
0.0
 31
0.0
  0
ENDBLK
  5
D6
330
D4
100
AcDbEntity
  8
0
100
AcDbBlockEnd
  0
ENDSEC
  0
SECTION
  2
ENTITIES
  0
LINE
  5
83
330
1F
100
AcDbEntity
  8
0
  6
Continuous
 62
     7
370
    25
100
AcDbLine
 10
129.1701403815
 20
102.1720643448
 30
0.0
 11
129.1701403815
 21
72.1754170122
 31
0.0
  0
LINE
  5
84
330
1F
100
AcDbEntity
  8
0
  6
Continuous
 62
     7
370
    25
100
AcDbLine
 10
143.1701403815
 20
72.1754170122
 30
0.0
 11
143.1701403815
 21
102.1748138585
 31
0.0
  0
LINE
  5
85
330
1F
100
AcDbEntity
  8
0
  6
Continuous
 62
     7
370
    25
100
AcDbLine
 10
129.1701403815
 20
102.1834836274
 30
0.0
 11
129.1701403815
 21
102.1720643448
 31
0.0
  0
LINE
  5
86
330
1F
100
AcDbEntity
  8
0
  6
Continuous
 62
     7
370
    25
100
AcDbLine
 10
143.1701403815
 20
102.1748138585
 30
0.0
 11
143.1701403815
 21
102.1834836274
 31
0.0
  0
CIRCLE
  5
87
330
1F
100
AcDbEntity
  8
0
  6
Continuous
 62
     7
370
    25
100
AcDbCircle
 10
136.1701403815
 20
117.6754170122
 30
0.0
 40
17.00000000000001
  0
CIRCLE
  5
88
330
1F
100
AcDbEntity
  8
0
  6
Continuous
 62
     7
370
    25
100
AcDbCircle
 10
136.1701403815
 20
117.6754170122
 30
0.0
 40
12.50000000000001
  0
LINE
  5
89
330
1F
100
AcDbEntity
  8
0
  6
Continuous
 62
     7
370
    25
100
AcDbLine
 10
136.1701403815
 20
72.1754170122
 30
0.0
 11
143.1701403815
 21
72.1754170122
 31
0.0
  0
LINE
  5
8A
330
1F
100
AcDbEntity
  8
0
  6
Continuous
 62
     7
370
    25
100
AcDbLine
 10
129.1701403815
 20
72.1754170122
 30
0.0
 11
136.1701403815
 21
72.1754170122
 31
0.0
  0
CIRCLE
  5
8B
330
1F
100
AcDbEntity
  8
0
  6
Continuous
 62
     7
370
    25
100
AcDbCircle
 10
136.1701403815
 20
117.6754170122
 30
0.0
 40
12.03644255919475
  0
CIRCLE
  5
8C
330
1F
100
AcDbEntity
  8
0
  6
Continuous
 62
     7
370
    25
100
AcDbCircle
 10
136.1701403815
 20
117.6754170122
 30
0.0
 40
10.46355744080526
  0
CIRCLE
  5
8D
330
1F
100
AcDbEntity
  8
0
  6
Continuous
 62
     7
370
    25
100
AcDbCircle
 10
136.1701403815
 20
117.6754170122
 30
0.0
 40
9.999999999999986
  0
INSERT
  5
99
330
1F
100
AcDbEntity
  8
FORMAT
 62
     7
100
AcDbBlockReference
  2
SW_CENTERMARKSYMBOL_0
 10
136.1701403815
 20
117.6754170122
 30
0.0
  0
ARC
  5
9A
330
1F
100
AcDbEntity
  8
0
  6
Continuous
 62
     7
370
    25
100
AcDbCircle
 10
46.1911939874
 20
132.6754170122
 30
0.0
 40
2.000000000000005
100
AcDbArc
 50
50.1944289077
 51
90.0
  0
ARC
  5
9B
330
1F
100
AcDbEntity
  8
0
  6
Continuous
 62
     7
370
    25
100
AcDbCircle
 10
46.1911939874
 20
102.6754170122
 30
0.0
 40
2.000000000000005
100
AcDbArc
 50
270.0
 51
309.8055710923
  0
LINE
  5
9C
330
1F
100
AcDbEntity
  8
0
  6
Continuous
 62
     7
370
    25
100
AcDbLine
 10
46.1911939874
 20
134.6754170122
 30
0.0
 11
8.9152938578
 21
134.6754170122
 31
0.0
  0
LINE
  5
9D
330
1F
100
AcDbEntity
  8
0
  6
Continuous
 62
     7
370
    25
100
AcDbLine
 10
23.9023448782
 20
100.6754170122
 30
0.0
 11
46.1911939874
 21
100.6754170122
 31
0.0
  0
LINE
  5
9E
330
1F
100
AcDbEntity
  8
0
  6
Continuous
 62
     7
370
    25
100
AcDbLine
 10
8.9152938578
 20
100.6754170122
 30
0.0
 11
9.9152938578
 21
100.6754170122
 31
0.0
  0
LINE
  5
9F
330
1F
100
AcDbEntity
  8
0
  6
Continuous
 62
     7
370
    25
100
AcDbLine
 10
47.4715627867
 20
101.138974453
 30
0.0
 11
49.3590249288
 21
102.7118595714
 31
0.0
  0
LINE
  5
A0
330
1F
100
AcDbEntity
  8
0
  6
Continuous
 62
     7
370
    25
100
AcDbLine
 10
49.3590249288
 20
132.638974453
 30
0.0
 11
47.4715627867
 21
134.2118595714
 31
0.0
  0
ARC
  5
A1
330
1F
100
AcDbEntity
  8
0
  6
Continuous
 62
     7
370
    25
100
AcDbCircle
 10
50.6393937281
 20
134.1754170122
 30
0.0
 40
2.000000000000028
100
AcDbArc
 50
230.1944289077
 51
270.0
  0
ARC
  5
A2
330
1F
100
AcDbEntity
  8
0
  6
Continuous
 62
     7
370
    25
100
AcDbCircle
 10
50.6393937281
 20
101.1754170122
 30
0.0
 40
2.000000000000016
100
AcDbArc
 50
90.0
 51
129.8055710923
  0
LINE
  5
A3
330
1F
100
AcDbEntity
  8
0
  6
Continuous
 62
     7
370
    25
100
AcDbLine
 10
85.9152938578
 20
132.1754170122
 30
0.0
 11
50.6393937281
 21
132.1754170122
 31
0.0
  0
LINE
  5
A4
330
1F
100
AcDbEntity
  8
0
  6
Continuous
 62
     7
370
    25
100
AcDbLine
 10
84.8931289736
 20
103.1754170122
 30
0.0
 11
85.9152938578
 21
103.1754170122
 31
0.0
  0
LINE
  5
A5
330
1F
100
AcDbEntity
  8
0
  6
Continuous
 62
     7
370
    25
100
AcDbLine
 10
50.6393937281
 20
103.1754170122
 30
0.0
 11
70.9152938578
 21
103.1754170122
 31
0.0
  0
LINE
  5
A6
330
1F
100
AcDbEntity
  8
0
  6
Continuous
 62
     7
370
    25
100
AcDbLine
 10
70.9152938578
 20
103.1754170122
 30
0.0
 11
70.9152938578
 21
82.6754170122
 31
0.0
  0
LINE
  5
A7
330
1F
100
AcDbEntity
  8
0
  6
Continuous
 62
     7
370
    25
100
AcDbLine
 10
84.9152938578
 20
82.6754170122
 30
0.0
 11
84.9152938578
 21
103.186093514
 31
0.0
  0
LINE
  5
A8
330
1F
100
AcDbEntity
  8
0
  6
Continuous
 62
     7
370
    25
100
AcDbLine
 10
9.9152938578
 20
100.6754170122
 30
0.0
 11
9.9152938578
 21
72.1754170122
 31
0.0
  0
LINE
  5
A9
330
1F
100
AcDbEntity
  8
0
  6
Continuous
 62
     7
370
    25
100
AcDbLine
 10
23.9152938578
 20
72.1754170122
 30
0.0
 11
23.9152938578
 21
100.6807159372
 31
0.0
  0
LINE
  5
AA
330
1F
100
AcDbEntity
  8
0
  6
Continuous
 62
     7
370
    25
100
AcDbLine
 10
8.9152938578
 20
134.6754170122
 30
0.0
 11
8.9152938578
 21
100.6754170122
 31
0.0
  0
ARC
  5
AB
330
1F
100
AcDbEntity
  8
0
  6
Continuous
 62
     7
370
    25
100
AcDbCircle
 10
16.9149508805
 20
84.5372718083
 30
0.0
 40
17.59076260592748
100
AcDbArc
 50
66.5955290728
 51
113.4480015738
  0
ARC
  5
AC
330
1F
100
AcDbEntity
  8
0
  6
Continuous
 62
     7
370
    25
100
AcDbCircle
 10
77.9144967413
 20
89.7218458418
 30
0.0
 40
15.16533607419627
100
AcDbArc
 50
62.6019241608
 51
117.4856469047
  0
LINE
  5
AD
330
1F
100
AcDbEntity
  8
0
  6
Continuous
 62
     7
370
    25
100
AcDbLine
 10
85.9152938578
 20
132.1754170122
 30
0.0
 11
85.9152938578
 21
103.1754170122
 31
0.0
  0
LINE
  5
AE
330
1F
100
AcDbEntity
  8
0
  6
Continuous
 62
     7
370
    25
100
AcDbLine
 10
70.9152938578
 20
82.6754170122
 30
0.0
 11
84.9152938578
 21
82.6754170122
 31
0.0
  0
LINE
  5
AF
330
1F
100
AcDbEntity
  8
0
  6
Continuous
 62
     7
370
    25
100
AcDbLine
 10
9.9152938578
 20
72.1754170122
 30
0.0
 11
23.9152938578
 21
72.1754170122
 31
0.0
  0
LINE
  5
B0
330
1F
100
AcDbEntity
  8
0
  6
Continuous
 62
     1
370
    25
100
AcDbLine
 10
47.4715627867
 20
134.2118595714
 30
0.0
 11
47.4715627867
 21
101.138974453
 31
0.0
  0
LINE
  5
B1
330
1F
100
AcDbEntity
  8
0
  6
Continuous
 62
     1
370
    25
100
AcDbLine
 10
46.1911939874
 20
134.6754170122
 30
0.0
 11
46.1911939874
 21
100.6754170122
 31
0.0
  0
LINE
  5
B2
330
1F
100
AcDbEntity
  8
0
  6
Continuous
 62
     1
370
    25
100
AcDbLine
 10
49.3590249288
 20
132.638974453
 30
0.0
 11
49.3590249288
 21
102.7118595714
 31
0.0
  0
LINE
  5
B3
330
1F
100
AcDbEntity
  8
0
  6
Continuous
 62
     1
370
    25
100
AcDbLine
 10
50.6393937281
 20
132.1754170122
 30
0.0
 11
50.6393937281
 21
103.1754170122
 31
0.0
  0
ARC
  5
B4
330
1F
100
AcDbEntity
  8
0
  6
Continuous
 62
     7
370
    25
100
AcDbCircle
 10
151.1701403815
 20
193.0031856506
 30
0.0
 40
2.000000000000028
100
AcDbArc
 50
320.1944289077
 51
0.0
  0
ARC
  5
B5
330
1F
100
AcDbEntity
  8
0
  6
Continuous
 62
     7
370
    25
100
AcDbCircle
 10
121.1701403815
 20
193.0031856506
 30
0.0
 40
2.0
100
AcDbArc
 50
180.0
 51
219.8055710923
  0
LINE
  5
B6
330
1F
100
AcDbEntity
  8
0
  6
Continuous
 62
     7
370
    25
100
AcDbLine
 10
153.1701403815
 20
193.0031856506
 30
0.0
 11
153.1701403815
 21
230.2790857802
 31
0.0
  0
LINE
  5
B7
330
1F
100
AcDbEntity
  8
0
  6
Continuous
 62
     7
370
    25
100
AcDbLine
 10
119.1701403815
 20
230.2790857802
 30
0.0
 11
119.1701403815
 21
193.0031856506
 31
0.0
  0
LINE
  5
B8
330
1F
100
AcDbEntity
  8
0
  6
Continuous
 62
     7
370
    25
100
AcDbLine
 10
119.6336978223
 20
191.7228168512
 30
0.0
 11
121.2065829407
 21
189.8353547092
 31
0.0
  0
LINE
  5
B9
330
1F
100
AcDbEntity
  8
0
  6
Continuous
 62
     7
370
    25
100
AcDbLine
 10
151.1336978223
 20
189.8353547092
 30
0.0
 11
152.7065829407
 21
191.7228168512
 31
0.0
  0
ARC
  5
BA
330
1F
100
AcDbEntity
  8
0
  6
Continuous
 62
     7
370
    25
100
AcDbCircle
 10
152.6701403815
 20
188.5549859098
 30
0.0
 40
2.000000000000028
100
AcDbArc
 50
140.1944289077
 51
180.0
  0
ARC
  5
BB
330
1F
100
AcDbEntity
  8
0
  6
Continuous
 62
     7
370
    25
100
AcDbCircle
 10
119.6701403815
 20
188.5549859098
 30
0.0
 40
2.000000000000014
100
AcDbArc
 50
0.0
 51
39.8055710923
  0
LINE
  5
BC
330
1F
100
AcDbEntity
  8
0
  6
Continuous
 62
     7
370
    25
100
AcDbLine
 10
150.6701403815
 20
153.2790857802
 30
0.0
 11
150.6701403815
 21
188.5549859098
 31
0.0
  0
LINE
  5
BD
330
1F
100
AcDbEntity
  8
0
  6
Continuous
 62
     7
370
    25
100
AcDbLine
 10
121.6701403815
 20
188.5549859098
 30
0.0
 11
121.6701403815
 21
153.2790857802
 31
0.0
  0
CIRCLE
  5
BE
330
1F
100
AcDbEntity
  8
0
  6
Continuous
 62
     7
370
    25
100
AcDbCircle
 10
136.1701403815
 20
222.2790857802
 30
0.0
 40
7.0
  0
CIRCLE
  5
BF
330
1F
100
AcDbEntity
  8
0
  6
Continuous
 62
     7
370
    25
100
AcDbCircle
 10
136.1701403815
 20
222.2790857802
 30
0.0
 40
5.0
  0
CIRCLE
  5
C0
330
1F
100
AcDbEntity
  8
0
  6
Continuous
 62
     7
370
    25
100
AcDbCircle
 10
136.1701403815
 20
161.2790857802
 30
0.0
 40
7.0
  0
CIRCLE
  5
C1
330
1F
100
AcDbEntity
  8
0
  6
Continuous
 62
     7
370
    25
100
AcDbCircle
 10
136.1701403815
 20
161.2790857802
 30
0.0
 40
5.0
  0
LINE
  5
C2
330
1F
100
AcDbEntity
  8
0
  6
Continuous
 62
     7
370
    25
100
AcDbLine
 10
153.1701403815
 20
230.2790857802
 30
0.0
 11
119.1701403815
 21
230.2790857802
 31
0.0
  0
LINE
  5
C3
330
1F
100
AcDbEntity
  8
0
  6
Continuous
 62
     7
370
    25
100
AcDbLine
 10
150.6701403815
 20
153.2790857802
 30
0.0
 11
121.6701403815
 21
153.2790857802
 31
0.0
  0
LINE
  5
C4
330
1F
100
AcDbEntity
  8
0
  6
Continuous
 62
     1
370
    25
100
AcDbLine
 10
152.7065829407
 20
191.7228168512
 30
0.0
 11
119.6336978223
 21
191.7228168512
 31
0.0
  0
LINE
  5
C5
330
1F
100
AcDbEntity
  8
0
  6
Continuous
 62
     1
370
    25
100
AcDbLine
 10
153.1701403815
 20
193.0031856506
 30
0.0
 11
119.1701403815
 21
193.0031856506
 31
0.0
  0
LINE
  5
C6
330
1F
100
AcDbEntity
  8
0
  6
Continuous
 62
     1
370
    25
100
AcDbLine
 10
151.1336978223
 20
189.8353547092
 30
0.0
 11
121.2065829407
 21
189.8353547092
 31
0.0
  0
LINE
  5
C7
330
1F
100
AcDbEntity
  8
0
  6
Continuous
 62
     1
370
    25
100
AcDbLine
 10
150.6701403815
 20
188.5549859098
 30
0.0
 11
121.6701403815
 21
188.5549859098
 31
0.0
  0
INSERT
  5
D3
330
1F
100
AcDbEntity
  8
FORMAT
 62
     7
100
AcDbBlockReference
  2
SW_CENTERMARKSYMBOL_1
 10
136.1701403815
 20
161.2790857802
 30
0.0
  0
INSERT
  5
DF
330
1F
100
AcDbEntity
  8
FORMAT
 62
     7
100
AcDbBlockReference
  2
SW_CENTERMARKSYMBOL_2
 10
136.1701403815
 20
222.2790857802
 30
0.0
  0
ARC
  5
E0
330
1F
100
AcDbEntity
  8
0
  6
Continuous
 62
     7
370
    25
100
AcDbCircle
 10
224.8961490158
 20
102.6754170122
 30
0.0
 40
2.0
100
AcDbArc
 50
230.1944289077
 51
270.0
  0
ARC
  5
E1
330
1F
100
AcDbEntity
  8
0
  6
Continuous
 62
     7
370
    25
100
AcDbCircle
 10
224.8961490158
 20
132.6754170122
 30
0.0
 40
2.0
100
AcDbArc
 50
90.0
 51
129.8055710923
  0
LINE
  5
E2
330
1F
100
AcDbEntity
  8
0
  6
Continuous
 62
     7
370
    25
100
AcDbLine
 10
261.1720491455
 20
100.6754170122
 30
0.0
 11
262.1720491455
 21
100.6754170122
 31
0.0
  0
LINE
  5
E3
330
1F
100
AcDbEntity
  8
0
  6
Continuous
 62
     7
370
    25
100
AcDbLine
 10
224.8961490158
 20
100.6754170122
 30
0.0
 11
247.1849981251
 21
100.6754170122
 31
0.0
  0
LINE
  5
E4
330
1F
100
AcDbEntity
  8
0
  6
Continuous
 62
     7
370
    25
100
AcDbLine
 10
262.1720491455
 20
134.6754170122
 30
0.0
 11
224.8961490158
 21
134.6754170122
 31
0.0
  0
LINE
  5
E5
330
1F
100
AcDbEntity
  8
0
  6
Continuous
 62
     7
370
    25
100
AcDbLine
 10
223.6157802165
 20
134.2118595714
 30
0.0
 11
221.7283180744
 21
132.638974453
 31
0.0
  0
LINE
  5
E6
330
1F
100
AcDbEntity
  8
0
  6
Continuous
 62
     7
370
    25
100
AcDbLine
 10
221.7283180744
 20
102.7118595714
 30
0.0
 11
223.6157802165
 21
101.138974453
 31
0.0
  0
ARC
  5
E7
330
1F
100
AcDbEntity
  8
0
  6
Continuous
 62
     7
370
    25
100
AcDbCircle
 10
220.4479492751
 20
101.1754170122
 30
0.0
 40
2.000000000000016
100
AcDbArc
 50
50.1944289077
 51
90.0
  0
ARC
  5
E8
330
1F
100
AcDbEntity
  8
0
  6
Continuous
 62
     7
370
    25
100
AcDbCircle
 10
220.4479492751
 20
134.1754170122
 30
0.0
 40
2.000000000000028
100
AcDbArc
 50
270.0
 51
309.8055710923
  0
LINE
  5
E9
330
1F
100
AcDbEntity
  8
0
  6
Continuous
 62
     7
370
    25
100
AcDbLine
 10
200.1720491455
 20
103.1754170122
 30
0.0
 11
220.4479492751
 21
103.1754170122
 31
0.0
  0
LINE
  5
EA
330
1F
100
AcDbEntity
  8
0
  6
Continuous
 62
     7
370
    25
100
AcDbLine
 10
185.1720491455
 20
103.1754170122
 30
0.0
 11
186.1942140296
 21
103.1754170122
 31
0.0
  0
LINE
  5
EB
330
1F
100
AcDbEntity
  8
0
  6
Continuous
 62
     7
370
    25
100
AcDbLine
 10
220.4479492751
 20
132.1754170122
 30
0.0
 11
185.1720491455
 21
132.1754170122
 31
0.0
  0
LINE
  5
EC
330
1F
100
AcDbEntity
  8
0
  6
Continuous
 62
     7
370
    25
100
AcDbLine
 10
186.1720491455
 20
103.186093514
 30
0.0
 11
186.1720491455
 21
82.6754170122
 31
0.0
  0
LINE
  5
ED
330
1F
100
AcDbEntity
  8
0
  6
Continuous
 62
     7
370
    25
100
AcDbLine
 10
200.1720491455
 20
82.6754170122
 30
0.0
 11
200.1720491455
 21
103.1754170122
 31
0.0
  0
LINE
  5
EE
330
1F
100
AcDbEntity
  8
0
  6
Continuous
 62
     7
370
    25
100
AcDbLine
 10
247.1720491455
 20
100.6807159372
 30
0.0
 11
247.1720491455
 21
72.1754170122
 31
0.0
  0
LINE
  5
EF
330
1F
100
AcDbEntity
  8
0
  6
Continuous
 62
     7
370
    25
100
AcDbLine
 10
261.1720491455
 20
72.1754170122
 30
0.0
 11
261.1720491455
 21
100.6754170122
 31
0.0
  0
LINE
  5
F0
330
1F
100
AcDbEntity
  8
0
  6
Continuous
 62
     7
370
    25
100
AcDbLine
 10
262.1720491455
 20
117.6754170122
 30
0.0
 11
262.1720491455
 21
134.6754170122
 31
0.0
  0
LINE
  5
F1
330
1F
100
AcDbEntity
  8
0
  6
Continuous
 62
     7
370
    25
100
AcDbLine
 10
262.1720491455
 20
100.6754170122
 30
0.0
 11
262.1720491455
 21
117.6754170122
 31
0.0
  0
SPLINE
  5
F2
330
1F
100
AcDbEntity
  8
0
  6
Continuous
 62
     7
370
    25
100
AcDbSpline
210
0.0
220
0.0
230
1.0
 70
     8
 71
     3
 72
    27
 73
    23
 74
     0
 42
0.00000001
 43
0.00000001
 40
0.0
 40
0.0
 40
0.0
 40
0.0
 40
0.0499725686436194
 40
0.1014648209594048
 40
0.1514195659558142
 40
0.2027088154174484
 40
0.2549256464313011
 40
0.3085200909327542
 40
0.3630887877719769
 40
0.4193881555655951
 40
0.4712914614838928
 40
0.5249518940070187
 40
0.5731171558402597
 40
0.6226309617583607
 40
0.671900242947596
 40
0.7223934108939769
 40
0.7756625035850939
 40
0.8304042658374996
 40
0.884702033355895
 40
0.9407804744661827
 40
0.9917066063843911
 40
1.0
 40
1.0
 40
1.0
 40
1.0
 10
261.172049145453
 20
100.6754170122378
 30
0.0
 10
261.1549703233183
 20
100.6824857120446
 30
0.0
 10
261.1202933059639
 20
100.6968380733455
 30
0.0
 10
260.8426154217688
 20
100.8094518252587
 30
0.0
 10
260.4072515386461
 20
100.977979329088
 30
0.0
 10
259.8118743578457
 20
101.1928608666442
 30
0.0
 10
259.0587143098318
 20
101.4374074927257
 30
0.0
 10
258.156674047327
 20
101.6884837304655
 30
0.0
 10
257.1128394053794
 20
101.9193492176866
 30
0.0
 10
255.9834055420576
 20
102.0922565908745
 30
0.0
 10
254.800169295456
 20
102.1855916450609
 30
0.0
 10
253.6547855863772
 20
102.1886907454271
 30
0.0
 10
252.5453467472078
 20
102.1101285662326
 30
0.0
 10
251.5133007181659
 20
101.9674602060513
 30
0.0
 10
250.5370404289822
 20
101.7714191124554
 30
0.0
 10
249.631251410401
 20
101.5388607739746
 30
0.0
 10
248.8135520966432
 20
101.2882049718655
 30
0.0
 10
248.1257552951008
 20
101.0486337083057
 30
0.0
 10
247.5932022950744
 20
100.8459437885615
 30
0.0
 10
247.2818108159931
 20
100.7207030942245
 30
0.0
 10
247.1512847795084
 20
100.6668992187674
 30
0.0
 10
247.1808567244466
 20
100.6790313253578
 30
0.0
 10
247.1849981250597
 20
100.6807303652342
 30
0.0
  0
SPLINE
  5
F3
330
1F
100
AcDbEntity
  8
0
  6
Continuous
 62
     7
370
    25
100
AcDbSpline
210
0.0
220
0.0
230
1.0
 70
     8
 71
     3
 72
    27
 73
    23
 74
     0
 42
0.00000001
 43
0.00000001
 40
0.0
 40
0.0
 40
0.0
 40
0.0
 40
0.0489265275684859
 40
0.0993645637600917
 40
0.1482686493414793
 40
0.198450690490426
 40
0.2502047590678165
 40
0.3032667965379596
 40
0.3585038521125442
 40
0.4155264089507395
 40
0.467415561560072
 40
0.5212015486962013
 40
0.5675867820320097
 40
0.6152684215272641
 40
0.6628587981215361
 40
0.711560990274817
 40
0.764662775025462
 40
0.8191797276831737
 40
0.8742288110298747
 40
0.9311460852091431
 40
0.9818268821105078
 40
1.0
 40
1.0
 40
1.0
 40
1.0
 10
200.172049145453
 20
103.1754170122378
 30
0.0
 10
200.1555127227826
 20
103.1834368568706
 30
0.0
 10
200.1219290105012
 20
103.1997243067052
 30
0.0
 10
199.8534262065737
 20
103.327597367382
 30
0.0
 10
199.4337466722838
 20
103.5193071849073
 30
0.0
 10
198.8592215336836
 20
103.7658078974303
 30
0.0
 10
198.1303359756402
 20
104.0501214474779
 30
0.0
 10
197.2463488866233
 20
104.3497226681809
 30
0.0
 10
196.2112105229486
 20
104.6332382644543
 30
0.0
 10
195.0792032245687
 20
104.8519655881207
 30
0.0
 10
193.8891971344086
 20
104.9749864254597
 30
0.0
 10
192.7503103119369
 20
104.9865467172604
 30
0.0
 10
191.6595882053808
 20
104.9007310035875
 30
0.0
 10
190.6568108525211
 20
104.7422190661945
 30
0.0
 10
189.7048325328523
 20
104.5220095223138
 30
0.0
 10
188.8050376623446
 20
104.2554692644818
 30
0.0
 10
187.9759850728871
 20
103.961453274755
 30
0.0
 10
187.2559515293183
 20
103.6705839816686
 30
0.0
 10
186.6827921445706
 20
103.4169993298475
 30
0.0
 10
186.326026252825
 20
103.2497175343303
 30
0.0
 10
186.1652811804632
 20
103.1721600228761
 30
0.0
 10
186.1881722278784
 20
103.183188162255
 30
0.0
 10
186.1942140296344
 20
103.186098899831
 30
0.0
  0
LINE
  5
F4
330
1F
100
AcDbEntity
  8
0
  6
Continuous
 62
     7
370
    25
100
AcDbLine
 10
185.1720491455
 20
117.6754170122
 30
0.0
 11
185.1720491455
 21
132.1754170122
 31
0.0
  0
LINE
  5
F5
330
1F
100
AcDbEntity
  8
0
  6
Continuous
 62
     7
370
    25
100
AcDbLine
 10
185.1720491455
 20
103.1754170122
 30
0.0
 11
185.1720491455
 21
117.6754170122
 31
0.0
  0
LINE
  5
F6
330
1F
100
AcDbEntity
  8
0
  6
Continuous
 62
     7
370
    25
100
AcDbLine
 10
186.1720491455
 20
82.6754170122
 30
0.0
 11
200.1720491455
 21
82.6754170122
 31
0.0
  0
LINE
  5
F7
330
1F
100
AcDbEntity
  8
0
  6
Continuous
 62
     7
370
    25
100
AcDbLine
 10
247.1720491455
 20
72.1754170122
 30
0.0
 11
261.1720491455
 21
72.1754170122
 31
0.0
  0
LINE
  5
F8
330
1F
100
AcDbEntity
  8
0
  6
Continuous
 62
     1
370
    25
100
AcDbLine
 10
223.6157802165
 20
117.6754170122
 30
0.0
 11
223.6157802165
 21
134.2118595714
 31
0.0
  0
LINE
  5
F9
330
1F
100
AcDbEntity
  8
0
  6
Continuous
 62
     1
370
    25
100
AcDbLine
 10
223.6157802165
 20
101.138974453
 30
0.0
 11
223.6157802165
 21
117.6754170122
 31
0.0
  0
LINE
  5
FA
330
1F
100
AcDbEntity
  8
0
  6
Continuous
 62
     1
370
    25
100
AcDbLine
 10
224.8961490158
 20
117.6754170122
 30
0.0
 11
224.8961490158
 21
134.6754170122
 31
0.0
  0
LINE
  5
FB
330
1F
100
AcDbEntity
  8
0
  6
Continuous
 62
     1
370
    25
100
AcDbLine
 10
224.8961490158
 20
100.6754170122
 30
0.0
 11
224.8961490158
 21
117.6754170122
 31
0.0
  0
LINE
  5
FC
330
1F
100
AcDbEntity
  8
0
  6
Continuous
 62
     1
370
    25
100
AcDbLine
 10
221.7283180744
 20
117.6754170122
 30
0.0
 11
221.7283180744
 21
132.638974453
 31
0.0
  0
LINE
  5
FD
330
1F
100
AcDbEntity
  8
0
  6
Continuous
 62
     1
370
    25
100
AcDbLine
 10
221.7283180744
 20
102.7118595714
 30
0.0
 11
221.7283180744
 21
117.6754170122
 31
0.0
  0
LINE
  5
FE
330
1F
100
AcDbEntity
  8
0
  6
Continuous
 62
     1
370
    25
100
AcDbLine
 10
220.4479492751
 20
117.6754170122
 30
0.0
 11
220.4479492751
 21
132.1754170122
 31
0.0
  0
LINE
  5
FF
330
1F
100
AcDbEntity
  8
0
  6
Continuous
 62
     1
370
    25
100
AcDbLine
 10
220.4479492751
 20
103.1754170122
 30
0.0
 11
220.4479492751
 21
117.6754170122
 31
0.0
  0
ARC
  5
100
330
1F
100
AcDbEntity
  8
0
  6
Continuous
 62
     7
370
    25
100
AcDbCircle
 10
121.1701403815
 20
19.9847737937
 30
0.0
 40
2.000000000000003
100
AcDbArc
 50
140.1944289077
 51
180.0
  0
ARC
  5
101
330
1F
100
AcDbEntity
  8
0
  6
Continuous
 62
     7
370
    25
100
AcDbCircle
 10
151.1701403815
 20
19.9847737937
 30
0.0
 40
2.000000000000028
100
AcDbArc
 50
0.0
 51
39.8055710923
  0
LINE
  5
102
330
1F
100
AcDbEntity
  8
0
  6
Continuous
 62
     7
370
    25
100
AcDbLine
 10
119.1701403815
 20
19.9847737937
 30
0.0
 11
119.1701403815
 21
-17.2911263359
 31
0.0
  0
LINE
  5
103
330
1F
100
AcDbEntity
  8
0
  6
Continuous
 62
     7
370
    25
100
AcDbLine
 10
153.1701403815
 20
-17.2911263359
 30
0.0
 11
153.1701403815
 21
19.9847737937
 31
0.0
  0
LINE
  5
104
330
1F
100
AcDbEntity
  8
0
  6
Continuous
 62
     7
370
    25
100
AcDbLine
 10
152.7065829407
 20
21.2651425931
 30
0.0
 11
151.1336978223
 21
23.1526047351
 31
0.0
  0
LINE
  5
105
330
1F
100
AcDbEntity
  8
0
  6
Continuous
 62
     7
370
    25
100
AcDbLine
 10
121.2065829407
 20
23.1526047351
 30
0.0
 11
119.6336978223
 21
21.2651425931
 31
0.0
  0
ARC
  5
106
330
1F
100
AcDbEntity
  8
0
  6
Continuous
 62
     7
370
    25
100
AcDbCircle
 10
119.6701403815
 20
24.4329735345
 30
0.0
 40
2.000000000000014
100
AcDbArc
 50
320.1944289077
 51
0.0
  0
ARC
  5
107
330
1F
100
AcDbEntity
  8
0
  6
Continuous
 62
     7
370
    25
100
AcDbCircle
 10
152.6701403815
 20
24.4329735345
 30
0.0
 40
2.000000000000028
100
AcDbArc
 50
180.0
 51
219.8055710923
  0
LINE
  5
108
330
1F
100
AcDbEntity
  8
0
  6
Continuous
 62
     7
370
    25
100
AcDbLine
 10
121.6701403815
 20
59.7088736641
 30
0.0
 11
121.6701403815
 21
24.4329735345
 31
0.0
  0
LINE
  5
109
330
1F
100
AcDbEntity
  8
0
  6
Continuous
 62
     7
370
    25
100
AcDbLine
 10
150.6701403815
 20
24.4329735345
 30
0.0
 11
150.6701403815
 21
59.7088736641
 31
0.0
  0
LINE
  5
10A
330
1F
100
AcDbEntity
  8
0
  6
Continuous
 62
     7
370
    25
100
AcDbLine
 10
119.1701403815
 20
-17.2911263359
 30
0.0
 11
153.1701403815
 21
-17.2911263359
 31
0.0
  0
LINE
  5
10B
330
1F
100
AcDbEntity
  8
0
  6
Continuous
 62
     7
370
    25
100
AcDbLine
 10
121.6701403815
 20
59.7088736641
 30
0.0
 11
150.6701403815
 21
59.7088736641
 31
0.0
  0
LINE
  5
10C
330
1F
100
AcDbEntity
  8
0
  6
Continuous
 62
     1
370
    25
100
AcDbLine
 10
119.6336978223
 20
21.2651425931
 30
0.0
 11
152.7065829407
 21
21.2651425931
 31
0.0
  0
LINE
  5
10D
330
1F
100
AcDbEntity
  8
0
  6
Continuous
 62
     1
370
    25
100
AcDbLine
 10
119.1701403815
 20
19.9847737937
 30
0.0
 11
153.1701403815
 21
19.9847737937
 31
0.0
  0
LINE
  5
10E
330
1F
100
AcDbEntity
  8
0
  6
Continuous
 62
     1
370
    25
100
AcDbLine
 10
121.2065829407
 20
23.1526047351
 30
0.0
 11
151.1336978223
 21
23.1526047351
 31
0.0
  0
LINE
  5
10F
330
1F
100
AcDbEntity
  8
0
  6
Continuous
 62
     1
370
    25
100
AcDbLine
 10
121.6701403815
 20
24.4329735345
 30
0.0
 11
150.6701403815
 21
24.4329735345
 31
0.0
  0
LINE
  5
110
330
1F
100
AcDbEntity
  8
0
  6
Continuous
 62
     7
370
    25
100
AcDbLine
 10
200.3007682862
 20
20.2787148355
 30
0.0
 11
200.3007682862
 21
-3.5945176205
 31
0.0
  0
LINE
  5
111
330
1F
100
AcDbEntity
  8
0
  6
Continuous
 62
     7
370
    25
100
AcDbLine
 10
214.3007682862
 20
-3.5945176205
 30
0.0
 11
214.3007682862
 21
20.2781460317
 31
0.0
  0
LINE
  5
112
330
1F
100
AcDbEntity
  8
0
  6
Continuous
 62
     7
370
    25
100
AcDbLine
 10
236.5012650206
 20
36.3303788074
 30
0.0
 11
210.1432232641
 21
51.5465524281
 31
0.0
  0
LINE
  5
113
330
1F
100
AcDbEntity
  8
0
  6
Continuous
 62
     7
370
    25
100
AcDbLine
 10
193.1446048093
 20
22.1008911071
 30
0.0
 11
200.3007682862
 21
17.9697258662
 31
0.0
  0
LINE
  5
114
330
1F
100
AcDbEntity
  8
0
  6
Continuous
 62
     7
370
    25
100
AcDbLine
 10
214.3007682862
 20
9.887697897
 30
0.0
 11
219.5026465658
 21
6.8847174865
 31
0.0
  0
SPLINE
  5
115
330
1F
100
AcDbEntity
  8
0
  6
Continuous
 62
     7
370
    25
100
AcDbSpline
210
0.0
220
0.0
230
1.0
 70
     8
 71
     3
 72
    18
 73
    14
 74
     0
 42
0.00000001
 43
0.00000001
 40
0.0
 40
0.0
 40
0.0
 40
0.0
 40
0.0884345389075331
 40
0.1857953488378265
 40
0.2826020611890466
 40
0.378592750379698
 40
0.4735168085223814
 40
0.5671785369861173
 40
0.659476324025295
 40
0.7504251178184685
 40
0.8401572219157138
 40
0.9289052020304729
 40
1.0
 40
1.0
 40
1.0
 40
1.0
 10
240.4790469677913
 20
29.68754715404358
 30
0.0
 10
240.4411919361689
 20
29.94239766555258
 30
0.0
 10
240.3616609193011
 20
30.47782240199886
 30
0.0
 10
240.175899779268
 20
31.25609481126991
 30
0.0
 10
239.9368601798856
 20
32.02517051263464
 30
0.0
 10
239.6457207428593
 20
32.75208522334616
 30
0.0
 10
239.3057569089377
 20
33.43351917581942
 30
0.0
 10
238.9189265229794
 20
34.06564814511903
 30
0.0
 10
238.4880717276517
 20
34.64539476280932
 30
0.0
 10
238.0166111213254
 20
35.17112278747484
 30
0.0
 10
237.5064169933493
 20
35.63911956150658
 30
0.0
 10
236.9996754244088
 20
36.02987801884186
 30
0.0
 10
236.6480396588888
 20
36.23766737270101
 30
0.0
 10
236.4916392633994
 20
36.3300878267865
 30
0.0
  0
SPLINE
  5
116
330
1F
100
AcDbEntity
  8
0
  6
Continuous
 62
     7
370
    25
100
AcDbSpline
210
0.0
220
0.0
230
1.0
 70
     8
 71
     3
 72
    19
 73
    15
 74
     0
 42
0.00000001
 43
0.00000001
 40
0.0
 40
0.0
 40
0.0
 40
0.0
 40
0.0521484284428205
 40
0.1416671393251508
 40
0.2312535552951245
 40
0.3212726310802334
 40
0.412051030942771
 40
0.5038527816741497
 40
0.5968572384852565
 40
0.6911428750947941
 40
0.7866821069008245
 40
0.8833514297142935
 40
0.9809569212183306
 40
1.0
 40
1.0
 40
1.0
 40
1.0
 10
219.5205063551427
 20
6.883534003979654
 30
0.0
 10
219.6332185872545
 20
6.817695542493317
 30
0.0
 10
219.93941419021
 20
6.638837870750317
 30
0.0
 10
220.4733033679871
 20
6.41015942143108
 30
0.0
 10
221.114336625593
 20
6.193369896368841
 30
0.0
 10
221.7806187368412
 20
6.038043009564228
 30
0.0
 10
222.4686732672939
 20
5.941273164239854
 30
0.0
 10
223.1774256766088
 20
5.904503847065111
 30
0.0
 10
223.9050142195905
 20
5.928028270436963
 30
0.0
 10
224.6493906565971
 20
6.012967771828605
 30
0.0
 10
225.4080752417388
 20
6.158073096385466
 30
0.0
 10
226.17779400508
 20
6.369627906384661
 30
0.0
 10
226.7451967624413
 20
6.554639163792539
 30
0.0
 10
227.0544487273395
 20
6.68617775013047
 30
0.0
 10
227.104934639996
 20
6.707651649521837
 30
0.0
  0
LINE
  5
117
330
1F
100
AcDbEntity
  8
0
  6
Continuous
 62
     7
370
    25
100
AcDbLine
 10
227.1007512239
 20
6.7014376303
 30
0.0
 11
228.6072219874
 21
7.2990692105
 31
0.0
  0
LINE
  5
118
330
1F
100
AcDbEntity
  8
0
  6
Continuous
 62
     7
370
    25
100
AcDbLine
 10
240.6954729296
 20
28.2388028809
 30
0.0
 11
240.4596512139
 21
29.8422385003
 31
0.0
  0
LINE
  5
119
330
1F
100
AcDbEntity
  8
0
  6
Continuous
 62
     7
370
    25
100
AcDbLine
 10
263.3405469997
 20
17.9497179669
 30
0.0
 11
240.1389004179
 21
31.3437434388
 31
0.0
  0
LINE
  5
11A
330
1F
100
AcDbEntity
  8
0
  6
Continuous
 62
     7
370
    25
100
AcDbLine
 10
225.6365452054
 20
6.2303663273
 30
0.0
 11
243.4342819386
 21
-4.0440483916
 31
0.0
  0
LINE
  5
11B
330
1F
100
AcDbEntity
  8
0
  6
Continuous
 62
     7
370
    25
100
AcDbLine
 10
243.4342819386
 20
-2.470950332
 30
0.0
 11
243.4342819386
 21
-19.9212865063
 31
0.0
  0
LINE
  5
11C
330
1F
100
AcDbEntity
  8
0
  6
Continuous
 62
     7
370
    25
100
AcDbLine
 10
257.4342819386
 20
-19.9212865063
 30
0.0
 11
257.4342819386
 21
-2.4706143201
 31
0.0
  0
LWPOLYLINE
  5
11D
330
1F
100
AcDbEntity
  8
0
  6
Continuous
 62
     7
370
    25
100
AcDbPolyline
 90
       63
 70
   128
 43
0.0
 10
202.3510208179
 20
-0.7370892291
 10
202.8771740171
 20
-0.4626685346
 10
203.4487192795
 20
-0.2203848497
 10
204.0597917774
 20
-0.012724333
 10
204.7041210801
 20
0.1581821376
 10
205.3750954969
 20
0.2905808305
 10
206.0658299224
 20
0.3831131559
 10
206.7692364866
 20
0.434829607
 10
207.4780972864
 20
0.4451995029
 10
208.1851384506
 20
0.4141164345
 10
208.8831047803
 20
0.3418993562
 10
209.5648341962
 20
0.2292893128
 10
210.2233312322
 20
0.0774418359
 10
210.8518388174
 20
-0.112084914
 10
211.4439076137
 20
-0.3373461359
 10
211.9934621939
 20
-0.5960303449
 10
212.4948633843
 20
-0.885483091
 10
212.9429661304
 20
-1.2027341973
 10
213.3331722914
 20
-1.5445282381
 10
213.6614778242
 20
-1.907357944
 10
213.9245138697
 20
-2.2875001913
 10
214.1195813222
 20
-2.6810542061
 10
214.2446785255
 20
-3.0839815916
 10
214.2985218133
 20
-3.4921477677
 10
214.2805586803
 20
-3.901364397
 10
214.1909734528
 20
-4.3074323631
 10
214.0306853963
 20
-4.7061848592
 10
213.8013392832
 20
-5.0935301452
 10
213.505288515
 20
-5.4654935342
 10
213.1455709732
 20
-5.8182581784
 10
212.7258778466
 20
-6.1482042353
 10
212.2505157545
 20
-6.4519460119
 10
211.7243625553
 20
-6.7263667064
 10
211.1528172928
 20
-6.9686503913
 10
210.5417447949
 20
-7.176310908
 10
209.8974154923
 20
-7.3472173786
 10
209.2264410755
 20
-7.4796160715
 10
208.53570665
 20
-7.5721483969
 10
207.8323000858
 20
-7.623864848
 10
207.123439286
 20
-7.6342347439
 10
206.4163981217
 20
-7.6031516755
 10
205.7184317921
 20
-7.5309345972
 10
205.0367023761
 20
-7.4183245538
 10
204.3782053402
 20
-7.2664770769
 10
203.7496977549
 20
-7.076950327
 10
203.1576289587
 20
-6.8516891051
 10
202.6080743785
 20
-6.5930048961
 10
202.106673188
 20
-6.30355215
 10
201.658570442
 20
-5.9863010437
 10
201.268364281
 20
-5.6445070029
 10
200.9400587482
 20
-5.281677297
 10
200.6770227027
 20
-4.9015350497
 10
200.4819552502
 20
-4.5079810349
 10
200.3568580468
 20
-4.1050536494
 10
200.3030147591
 20
-3.6968874733
 10
200.320977892
 20
-3.287670844
 10
200.4105631196
 20
-2.8816028779
 10
200.5708511761
 20
-2.4828503817
 10
200.8001972892
 20
-2.0955050958
 10
201.0962480574
 20
-1.7235417068
 10
201.4559655992
 20
-1.3707770626
 10
201.8756587258
 20
-1.0408310057
 10
202.3510208179
 20
-0.7370892291
  0
LWPOLYLINE
  5
11E
330
1F
100
AcDbEntity
  8
0
  6
Continuous
 62
     7
370
    25
100
AcDbPolyline
 90
       53
 70
   128
 43
0.0
 10
203.7652343802
 20
-1.5534973409
 10
204.217173923
 20
-1.3223608679
 10
204.7140792153
 20
-1.1243575568
 10
205.2487042589
 20
-0.9623747418
 10
205.8132530169
 20
-0.838774497
 10
206.3994930971
 20
-0.7553591923
 10
206.9988757991
 20
-0.7133452107
 10
207.6026607733
 20
-0.7133452107
 10
208.2020434753
 20
-0.7553591923
 10
208.7882835555
 20
-0.838774497
 10
209.3528323134
 20
-0.9623747418
 10
209.8874573571
 20
-1.1243575568
 10
210.3843626493
 20
-1.3223608679
 10
210.8363021921
 20
-1.5534973409
 10
211.2366856892
 20
-1.8143964856
 10
211.5796746477
 20
-2.1012538049
 10
211.8602675161
 20
-2.4098862731
 10
212.0743726187
 20
-2.735793334
 10
212.2188678209
 20
-3.0742225286
 10
212.2916460573
 20
-3.4202387973
 10
212.2916460573
 20
-3.7687964437
 10
212.2188678209
 20
-4.1148127124
 10
212.0743726187
 20
-4.453241907
 10
211.8602675161
 20
-4.7791489679
 10
211.5796746477
 20
-5.0877814361
 10
211.2366856892
 20
-5.3746387554
 10
210.8363021921
 20
-5.6355379001
 10
210.3843626493
 20
-5.8666743731
 10
209.8874573571
 20
-6.0646776842
 10
209.3528323134
 20
-6.2266604992
 10
208.7882835555
 20
-6.350260744
 10
208.2020434753
 20
-6.4336760487
 10
207.6026607733
 20
-6.4756900303
 10
206.9988757991
 20
-6.4756900303
 10
206.3994930971
 20
-6.4336760487
 10
205.8132530169
 20
-6.350260744
 10
205.2487042589
 20
-6.2266604992
 10
204.7140792153
 20
-6.0646776842
 10
204.217173923
 20
-5.8666743731
 10
203.7652343802
 20
-5.6355379001
 10
203.3648508831
 20
-5.3746387554
 10
203.0218619247
 20
-5.0877814361
 10
202.7412690562
 20
-4.7791489679
 10
202.5271639536
 20
-4.453241907
 10
202.3826687514
 20
-4.1148127124
 10
202.3098905151
 20
-3.7687964437
 10
202.3098905151
 20
-3.4202387973
 10
202.3826687514
 20
-3.0742225286
 10
202.5271639536
 20
-2.735793334
 10
202.7412690562
 20
-2.4098862731
 10
203.0218619247
 20
-2.1012538049
 10
203.3648508831
 20
-1.8143964856
 10
203.7652343802
 20
-1.5534973409
  0
SPLINE
  5
11F
330
1F
100
AcDbEntity
  8
0
  6
Continuous
 62
     7
370
    25
100
AcDbSpline
210
0.0
220
0.0
230
1.0
 70
     8
 71
     3
 72
    12
 73
     8
 74
     0
 42
0.00000001
 43
0.00000001
 40
0.0
 40
0.0
 40
0.0
 40
0.0
 40
0.1999607023377114
 40
0.4060022810975368
 40
0.6058916637270348
 40
0.8111209449725555
 40
1.0
 40
1.0
 40
1.0
 40
1.0
 10
202.3510208178767
 20
22.53432390962421
 30
0.0
 10
202.1011478203723
 20
22.38187174675397
 30
0.0
 10
201.5938030982073
 20
22.07233129625567
 30
0.0
 10
201.0188385251071
 20
21.60616244855039
 30
0.0
 10
200.5986115462322
 20
21.14388770512332
 30
0.0
 10
200.3434486015505
 20
20.70300785803158
 30
0.0
 10
200.3199989048399
 20
20.41597457280596
 30
0.0
 10
200.3087604809149
 20
20.27841195185878
 30
0.0
  0
SPLINE
  5
120
330
1F
100
AcDbEntity
  8
0
  6
Continuous
 62
     7
370
    25
100
AcDbSpline
210
0.0
220
0.0
230
1.0
 70
     8
 71
     3
 72
    22
 73
    18
 74
     0
 42
0.00000001
 43
0.00000001
 40
0.0
 40
0.0
 40
0.0
 40
0.0
 40
0.0640399929692417
 40
0.1374968721769565
 40
0.2096394983848316
 40
0.2842151155852169
 40
0.3509387504190161
 40
0.4197892273765438
 40
0.4837390256400455
 40
0.5493520336991736
 40
0.6171392630629483
 40
0.6866420852134837
 40
0.7590669314714814
 40
0.8336578283622511
 40
0.904615483733072
 40
0.9779462709854666
 40
1.0
 40
1.0
 40
1.0
 40
1.0
 10
214.2917645598049
 20
20.27780261770753
 30
0.0
 10
214.2803825711511
 20
20.54032409399453
 30
0.0
 10
214.2559449070215
 20
21.10397003140236
 30
0.0
 10
213.9750847256556
 20
21.93452451207371
 30
0.0
 10
213.499921054175
 20
22.73313234375675
 30
0.0
 10
212.8486621442139
 20
23.3959885188081
 30
0.0
 10
212.0513806333339
 20
23.90912788736098
 30
0.0
 10
211.1732009867747
 20
24.25273022297137
 30
0.0
 10
210.2107584344529
 20
24.45027304489532
 30
0.0
 10
209.1917503310877
 20
24.51384214714975
 30
0.0
 10
208.1039203589476
 20
24.45232769316659
 30
0.0
 10
206.9614677386776
 20
24.27232237723552
 30
0.0
 10
205.7884379944206
 20
23.98305912353953
 30
0.0
 10
204.643146758563
 20
23.60627133735984
 30
0.0
 10
203.5648926119106
 20
23.16563976775962
 30
0.0
 10
202.8198533484159
 20
22.79985327685
 30
0.0
 10
202.4390628825119
 20
22.58418767160535
 30
0.0
 10
202.3510208178767
 20
22.53432390962421
 30
0.0
  0
LWPOLYLINE
  5
121
330
1F
100
AcDbEntity
  8
0
  6
Continuous
 62
     7
370
    25
100
AcDbPolyline
 90
       97
 70
   128
 43
0.0
 10
189.6230987565
 20
29.8842528171
 10
189.6488362448
 20
30.8069842649
 10
189.7259384976
 20
31.7554803064
 10
189.8540753515
 20
32.7256793359
 10
190.0326981045
 20
33.7134268123
 10
190.2610418668
 20
34.7144930492
 10
190.5381288352
 20
35.7245913272
 10
190.8627724809
 20
36.7393962506
 10
191.2335826299
 20
37.7545622687
 10
191.6489714161
 20
38.7657422849
 10
192.1071600811
 20
39.7686062712
 10
192.6061865907
 20
40.7588598098
 10
193.1439140367
 20
41.7322624833
 10
193.7180397876
 20
42.6846460318
 10
194.3261053489
 20
43.6119322028
 10
194.9655068904
 20
44.5101502146
 10
195.6335063966
 20
45.3754537598
 10
196.3272433911
 20
46.2041374757
 10
197.0437471854
 20
46.9926528114
 10
197.7799496005
 20
47.7376232232
 10
198.5326981045
 20
48.4358586334
 10
199.2987693128
 20
49.0843690909
 10
200.0748827908
 20
49.6803775742
 10
200.8577151015
 20
50.2213318836
 10
201.6439140367
 20
50.7049155697
 10
202.4301129719
 20
51.1290578527
 10
203.2129452826
 20
51.4919424905
 10
203.9890587606
 20
51.7920155552
 10
204.7551299689
 20
52.027992088
 10
205.5078784729
 20
52.1988616011
 10
206.2440808879
 20
52.3038924049
 10
206.9605846823
 20
52.3426347415
 10
207.6543216768
 20
52.3149227103
 10
208.322321183
 20
52.2208749783
 10
208.9617227245
 20
52.0608942725
 10
209.5697882858
 20
51.8356656548
 10
210.1439140367
 20
51.5461535887
 10
210.6816414827
 20
51.1935978093
 10
211.1806679922
 20
50.7795080146
 10
211.6388566573
 20
50.3056574006
 10
212.0542454435
 20
49.7740750685
 10
212.4250555925
 20
49.1870373354
 10
212.7496992381
 20
48.5470579869
 10
213.0267862066
 20
47.856877513
 10
213.2551299689
 20
47.1194513723
 10
213.4337527219
 20
46.3379373369
 10
213.5618895757
 20
45.5156819697
 10
213.6389918286
 20
44.6562062945
 10
213.6647293169
 20
43.7631907181
 10
213.6389918286
 20
42.8404592703
 10
213.5618895757
 20
41.8919632288
 10
213.4337527219
 20
40.9217641992
 10
213.2551299689
 20
39.9340167229
 10
213.0267862066
 20
38.932950486
 10
212.7496992381
 20
37.922852208
 10
212.4250555925
 20
36.9080472846
 10
212.0542454435
 20
35.8928812665
 10
211.6388566573
 20
34.8817012502
 10
211.1806679922
 20
33.878837264
 10
210.6816414827
 20
32.8885837254
 10
210.1439140367
 20
31.9151810519
 10
209.5697882858
 20
30.9627975034
 10
208.9617227245
 20
30.0355113324
 10
208.322321183
 20
29.1372933206
 10
207.6543216768
 20
28.2719897754
 10
206.9605846823
 20
27.4433060595
 10
206.2440808879
 20
26.6547907238
 10
205.5078784729
 20
25.909820312
 10
204.7551299689
 20
25.2115849017
 10
203.9890587606
 20
24.5630744443
 10
203.2129452826
 20
23.9670659609
 10
202.4301129719
 20
23.4261116516
 10
201.6439140367
 20
22.9425279655
 10
200.8577151015
 20
22.5183856824
 10
200.0748827908
 20
22.1555010447
 10
199.2987693128
 20
21.8554279799
 10
198.5326981045
 20
21.6194514472
 10
197.7799496005
 20
21.4485819341
 10
197.0437471854
 20
21.3435511303
 10
196.3272433911
 20
21.3048087937
 10
195.6335063966
 20
21.3325208249
 10
194.9655068904
 20
21.4265685568
 10
194.3261053489
 20
21.5865492626
 10
193.7180397876
 20
21.8117778804
 10
193.1439140367
 20
22.1012899465
 10
192.6061865907
 20
22.4538457259
 10
192.1071600811
 20
22.8679355206
 10
191.6489714161
 20
23.3417861345
 10
191.2335826299
 20
23.8733684667
 10
190.8627724809
 20
24.4604061998
 10
190.5381288352
 20
25.1003855482
 10
190.2610418668
 20
25.7905660222
 10
190.0326981045
 20
26.5279921628
 10
189.8540753515
 20
27.3095061983
 10
189.7259384976
 20
28.1317615655
 10
189.6488362448
 20
28.9912372407
 10
189.6230987565
 20
29.8842528171
  0
LWPOLYLINE
  5
122
330
1F
100
AcDbEntity
  8
0
  6
Continuous
 62
     7
370
    25
100
AcDbPolyline
 90
       84
 70
   128
 43
0.0
 10
192.8050792719
 20
31.7211710687
 10
192.8303932944
 20
32.5077090124
 10
192.9061903656
 20
33.3189686864
 10
193.0320363267
 20
34.1503032686
 10
193.2072103435
 20
34.9969509499
 10
193.430709035
 20
35.8540622089
 10
193.7012522209
 20
36.7167275902
 10
194.0172902545
 20
37.5800058243
 10
194.3770128984
 20
38.4389521319
 10
194.778359694
 20
39.2886465463
 10
195.219031763
 20
40.1242220947
 10
195.696504976
 20
40.9408926761
 10
196.2080444094
 20
41.7339804755
 10
196.7507200118
 20
42.4989427576
 10
197.3214233864
 20
43.2313978878
 10
197.916885596
 20
43.9271504295
 10
198.5336958871
 20
44.5822151751
 10
199.168321226
 20
45.1928399731
 10
199.8171265363
 20
45.7555272199
 10
200.4763955201
 20
46.2670538939
 10
201.1423519441
 20
46.7244900166
 10
201.8111812704
 20
47.1252154355
 10
202.4790525052
 20
47.4669348315
 10
203.1421401424
 20
47.7476908669
 10
203.7966460762
 20
47.9658753966
 10
204.4388213558
 20
48.1202386794
 10
205.0649876593
 20
48.2098965362
 10
205.671558363
 20
48.2343354151
 10
206.2550590847
 20
48.1934153324
 10
206.8121475852
 20
48.0873706746
 10
207.3396329119
 20
47.9168088558
 10
207.8344936767
 20
47.6827068389
 10
208.293895362
 20
47.3864055387
 10
208.7152065564
 20
47.0296021425
 10
209.0960140277
 20
46.6143403878
 10
209.434136545
 20
46.1429988562
 10
209.7276373733
 20
45.6182773494
 10
209.9748353664
 20
45.0431814247
 10
210.1743145966
 20
44.4210051794
 10
210.3249324648
 20
43.7553123827
 10
210.4258262457
 20
43.0499160627
 10
210.4764180287
 20
42.3088566656
 10
210.4764180287
 20
41.5363789126
 10
210.4258262457
 20
40.7369074862
 10
210.3249324648
 20
39.9150216864
 10
210.1743145966
 20
39.0754292006
 10
209.9748353664
 20
38.2229391385
 10
209.7276373733
 20
37.362434486
 10
209.434136545
 20
36.4988441359
 10
209.0960140277
 20
35.6371146554
 10
208.7152065564
 20
34.782181953
 10
208.293895362
 20
33.9389430058
 10
207.8344936767
 20
33.1122278101
 10
207.3396329119
 20
32.3067717157
 10
206.8121475852
 20
31.5271883021
 10
206.2550590847
 20
30.7779429525
 10
205.671558363
 20
30.0633272765
 10
205.0649876593
 20
29.387434528
 10
204.4388213558
 20
28.7541361593
 10
203.7966460762
 20
28.1670596462
 10
203.1421401424
 20
27.6295677098
 10
202.4790525052
 20
27.1447390552
 10
201.8111812704
 20
26.7153507371
 10
201.1423519441
 20
26.3438622528
 10
200.4763955201
 20
26.0324014548
 10
199.8171265363
 20
25.7827523623
 10
199.168321226
 20
25.5963449426
 10
198.5336958871
 20
25.4742469207
 10
197.916885596
 20
25.4171576629
 10
197.3214233864
 20
25.4254041713
 10
196.7507200118
 20
25.4989392107
 10
196.2080444094
 20
25.637341579
 10
195.696504976
 20
25.83981852
 10
195.219031763
 20
26.1052102641
 10
194.778359694
 20
26.4319966715
 10
194.3770128984
 20
26.8183059391
 10
194.0172902545
 20
27.2619253225
 10
193.7012522209
 20
27.7603138101
 10
193.430709035
 20
28.3106166776
 10
193.2072103435
 20
28.9096818401
 10
193.0320363267
 20
29.5540779067
 10
192.9061903656
 20
30.240113835
 10
192.8303932944
 20
30.9638600733
 10
192.8050792719
 20
31.7211710687
  0
LINE
  5
123
330
1F
100
AcDbEntity
  8
0
  6
Continuous
 62
     7
370
    25
100
AcDbLine
 10
240.4596512139
 20
29.8422385003
 30
0.0
 11
240.4798565742
 21
29.6989780864
 31
0.0
  0
LWPOLYLINE
  5
124
330
1F
100
AcDbEntity
  8
0
  6
Continuous
 62
     7
370
    25
100
AcDbPolyline
 90
       33
 70
   128
 43
0.0
 10
263.3405469997
 20
17.9497179669
 10
263.6538714133
 20
17.7524841681
 10
264.1233847772
 20
17.3875855701
 10
264.5528818826
 20
16.9629256153
 10
264.9402229966
 20
16.4806199382
 10
265.2834784052
 20
15.9430713616
 10
265.5809380273
 20
15.3529579253
 10
265.831119934
 20
14.7132195448
 10
266.0327777316
 20
14.0270433645
 10
266.1849067711
 20
13.2978478797
 10
266.2867491533
 20
12.5292659056
 10
266.3377975045
 20
11.7251264789
 10
266.3377975045
 20
10.8894357818
 10
266.2867491533
 20
10.0263571832
 10
266.1849067711
 20
9.1401904975
 10
266.0327777316
 20
8.2353505624
 10
265.831119934
 20
7.3163452449
 10
265.5809380273
 20
6.3877529834
 10
265.2834784052
 20
5.4541999777
 10
264.9402229966
 20
4.5203371421
 10
264.5528818826
 20
3.590816934
 10
264.1233847772
 20
2.6702701766
 10
263.6538714133
 20
1.7632829873
 10
263.146680883
 20
0.8743739309
 10
262.604339984
 20
0.0079715074
 10
262.0295506312
 20
-0.8316079099
 10
261.4251763964
 20
-1.6401815784
 10
260.7942282416
 20
-2.4137212249
 10
260.1398495187
 20
-3.1483731138
 10
259.4653003097
 20
-3.8404772462
 10
258.7739411848
 20
-4.4865855943
 10
258.0692164603
 20
-5.0834792787
 10
257.4342819386
 20
-5.5704199221
  0
SPLINE
  5
125
330
1F
100
AcDbEntity
  8
0
  6
Continuous
 62
     7
370
    25
100
AcDbSpline
210
0.0
220
0.0
230
1.0
 70
     8
 71
     3
 72
    12
 73
     8
 74
     0
 42
0.00000001
 43
0.00000001
 40
0.0
 40
0.0
 40
0.0
 40
0.0
 40
0.1958656724562597
 40
0.3977823088293109
 40
0.5935581401479971
 40
0.7944499614837309
 40
1.0
 40
1.0
 40
1.0
 40
1.0
 10
245.4845344702562
 20
-0.3247714712539818
 30
0.0
 10
245.2385175965064
 20
-0.4737703098254761
 30
0.0
 10
244.7388835420856
 20
-0.7763710732802825
 30
0.0
 10
244.1704811540162
 20
-1.218920805452453
 30
0.0
 10
243.751131526131
 20
-1.648505899118049
 30
0.0
 10
243.4846613270091
 20
-2.063976465123268
 30
0.0
 10
243.4516694660802
 20
-2.334281095832676
 30
0.0
 10
243.4349844762834
 20
-2.470982387559072
 30
0.0
  0
SPLINE
  5
126
330
1F
100
AcDbEntity
  8
0
  6
Continuous
 62
     7
370
    25
100
AcDbSpline
210
0.0
220
0.0
230
1.0
 70
     8
 71
     3
 72
    22
 73
    18
 74
     0
 42
0.00000001
 43
0.00000001
 40
0.0
 40
0.0
 40
0.0
 40
0.0
 40
0.0425925620476455
 40
0.1154006098583596
 40
0.1888137238647911
 40
0.2647900406322984
 40
0.3313068691692021
 40
0.4001277302919304
 40
0.4613781149221903
 40
0.5242028264907421
 40
0.589657284204886
 40
0.656654870830357
 40
0.7291765224672405
 40
0.8037892166493575
 40
0.876008566432831
 40
0.9507587066196205
 40
1.0
 40
1.0
 40
1.0
 40
1.0
 10
257.4115686568661
 20
-2.470831203308186
 30
0.0
 10
257.413838455682
 20
-2.28932327759563
 30
0.0
 10
257.419988265767
 20
-1.797544330418795
 30
0.0
 10
257.2110059649494
 20
-1.005370508919842
 30
0.0
 10
256.7954582096875
 20
-0.1378357100356997
 30
0.0
 10
256.1859382022757
 20
0.594319290102556
 30
0.0
 10
255.4229688578503
 20
1.162959997343629
 30
0.0
 10
254.5848210477774
 20
1.538308855164601
 30
0.0
 10
253.671374015659
 20
1.754686693169104
 30
0.0
 10
252.7120194997267
 20
1.832452495898359
 30
0.0
 10
251.6809891006383
 20
1.784369246875295
 30
0.0
 10
250.5743812622294
 20
1.615851302478211
 30
0.0
 10
249.4132273494776
 20
1.333008426808037
 30
0.0
 10
248.243834399541
 20
0.9532285910715359
 30
0.0
 10
247.1183681582109
 20
0.5041470504767511
 30
0.0
 10
246.1927184657957
 20
0.0697526699592471
 30
0.0
 10
245.6858353243506
 20
-0.2126282329327107
 30
0.0
 10
245.4845344702562
 20
-0.3247714712539818
 30
0.0
  0
LWPOLYLINE
  5
127
330
1F
100
AcDbEntity
  8
0
  6
Continuous
 62
     7
370
    25
100
AcDbPolyline
 90
       63
 70
   128
 43
0.0
 10
245.4845344703
 20
-17.0638581149
 10
246.0106876694
 20
-16.7894374204
 10
246.5822329319
 20
-16.5471537355
 10
247.1933054298
 20
-16.3394932188
 10
247.8376347325
 20
-16.1685867482
 10
248.5086091493
 20
-16.0361880553
 10
249.1993435748
 20
-15.9436557299
 10
249.902750139
 20
-15.8919392788
 10
250.6116109388
 20
-15.8815693829
 10
251.318652103
 20
-15.9126524513
 10
252.0166184326
 20
-15.9848695296
 10
252.6983478486
 20
-16.097479573
 10
253.3568448846
 20
-16.2493270499
 10
253.9853524698
 20
-16.4388537998
 10
254.5774212661
 20
-16.6641150217
 10
255.1269758463
 20
-16.9227992307
 10
255.6283770367
 20
-17.2122519768
 10
256.0764797827
 20
-17.5295030831
 10
256.4666859438
 20
-17.8712971238
 10
256.7949914766
 20
-18.2341268298
 10
257.0580275221
 20
-18.6142690771
 10
257.2530949745
 20
-19.0078230919
 10
257.3781921779
 20
-19.4107504774
 10
257.4320354656
 20
-19.8189166535
 10
257.4140723327
 20
-20.2281332828
 10
257.3244871051
 20
-20.6342012489
 10
257.1641990486
 20
-21.032953745
 10
256.9348529356
 20
-21.420299031
 10
256.6388021674
 20
-21.7922624199
 10
256.2790846256
 20
-22.1450270642
 10
255.8593914989
 20
-22.4749731211
 10
255.3840294069
 20
-22.7787148977
 10
254.8578762077
 20
-23.0531355922
 10
254.2863309452
 20
-23.2954192771
 10
253.6752584473
 20
-23.5030797938
 10
253.0309291447
 20
-23.6739862644
 10
252.3599547278
 20
-23.8063849573
 10
251.6692203024
 20
-23.8989172827
 10
250.9658137381
 20
-23.9506337338
 10
250.2569529384
 20
-23.9610036297
 10
249.5499117741
 20
-23.9299205613
 10
248.8519454445
 20
-23.857703483
 10
248.1702160285
 20
-23.7450934396
 10
247.5117189926
 20
-23.5932459627
 10
246.8832114073
 20
-23.4037192128
 10
246.2911426111
 20
-23.1784579909
 10
245.7415880309
 20
-22.9197737819
 10
245.2401868404
 20
-22.6303210358
 10
244.7920840944
 20
-22.3130699295
 10
244.4018779334
 20
-21.9712758887
 10
244.0735724006
 20
-21.6084461828
 10
243.8105363551
 20
-21.2283039355
 10
243.6154689026
 20
-20.8347499207
 10
243.4903716992
 20
-20.4318225352
 10
243.4365284115
 20
-20.0236563591
 10
243.4544915444
 20
-19.6144397298
 10
243.544076772
 20
-19.2083717637
 10
243.7043648285
 20
-18.8096192675
 10
243.9337109416
 20
-18.4222739816
 10
244.2297617097
 20
-18.0503105926
 10
244.5894792515
 20
-17.6975459484
 10
245.0091723782
 20
-17.3675998915
 10
245.4845344703
 20
-17.0638581149
  0
LWPOLYLINE
  5
128
330
1F
100
AcDbEntity
  8
0
  6
Continuous
 62
     7
370
    25
100
AcDbPolyline
 90
       53
 70
   128
 43
0.0
 10
246.8987480326
 20
-17.8802662267
 10
247.3506875754
 20
-17.6491297537
 10
247.8475928677
 20
-17.4511264426
 10
248.3822179113
 20
-17.2891436276
 10
248.9467666693
 20
-17.1655433828
 10
249.5330067495
 20
-17.0821280781
 10
250.1323894515
 20
-17.0401140965
 10
250.7361744257
 20
-17.0401140965
 10
251.3355571276
 20
-17.0821280781
 10
251.9217972078
 20
-17.1655433828
 10
252.4863459658
 20
-17.2891436276
 10
253.0209710095
 20
-17.4511264426
 10
253.5178763017
 20
-17.6491297537
 10
253.9698158445
 20
-17.8802662267
 10
254.3701993416
 20
-18.1411653714
 10
254.7131883001
 20
-18.4280226907
 10
254.9937811685
 20
-18.7366551589
 10
255.2078862711
 20
-19.0625622198
 10
255.3523814733
 20
-19.4009914144
 10
255.4251597097
 20
-19.7470076831
 10
255.4251597097
 20
-20.0955653295
 10
255.3523814733
 20
-20.4415815981
 10
255.2078862711
 20
-20.7800107928
 10
254.9937811685
 20
-21.1059178536
 10
254.7131883001
 20
-21.4145503219
 10
254.3701993416
 20
-21.7014076412
 10
253.9698158445
 20
-21.9623067858
 10
253.5178763017
 20
-22.1934432589
 10
253.0209710095
 20
-22.39144657
 10
252.4863459658
 20
-22.553429385
 10
251.9217972078
 20
-22.6770296298
 10
251.3355571276
 20
-22.7604449345
 10
250.7361744257
 20
-22.8024589161
 10
250.1323894515
 20
-22.8024589161
 10
249.5330067495
 20
-22.7604449345
 10
248.9467666693
 20
-22.6770296298
 10
248.3822179113
 20
-22.553429385
 10
247.8475928677
 20
-22.39144657
 10
247.3506875754
 20
-22.1934432589
 10
246.8987480326
 20
-21.9623067858
 10
246.4983645355
 20
-21.7014076412
 10
246.1553755771
 20
-21.4145503219
 10
245.8747827086
 20
-21.1059178536
 10
245.660677606
 20
-20.7800107928
 10
245.5161824038
 20
-20.4415815981
 10
245.4434041674
 20
-20.0955653295
 10
245.4434041674
 20
-19.7470076831
 10
245.5161824038
 20
-19.4009914144
 10
245.660677606
 20
-19.0625622198
 10
245.8747827086
 20
-18.7366551589
 10
246.1553755771
 20
-18.4280226907
 10
246.4983645355
 20
-18.1411653714
 10
246.8987480326
 20
-17.8802662267
  0
LWPOLYLINE
  5
129
330
1F
100
AcDbEntity
  8
0
  6
Continuous
 62
     1
370
    25
100
AcDbPolyline
 90
       50
 70
   128
 43
0.0
 10
236.5012650206
 20
36.3303788074
 10
236.5019557932
 20
36.3299799681
 10
237.0396832392
 20
35.9774241887
 10
237.5387097487
 20
35.5633343939
 10
237.9968984138
 20
35.08948378
 10
238.4122872
 20
34.5579014479
 10
238.783097349
 20
33.9708637147
 10
239.1077409946
 20
33.3308843663
 10
239.3848279631
 20
32.6407038923
 10
239.6131717254
 20
31.9032777517
 10
239.7917944784
 20
31.1217637162
 10
239.9199313322
 20
30.299508349
 10
239.9970335851
 20
29.4400326738
 10
240.0227710734
 20
28.5470170974
 10
239.9970335851
 20
27.6242856496
 10
239.9199313322
 20
26.6757896081
 10
239.7917944784
 20
25.7055905786
 10
239.6131717254
 20
24.7178431022
 10
239.3848279631
 20
23.7167768653
 10
239.1077409946
 20
22.7066785873
 10
238.783097349
 20
21.691873664
 10
238.4122872
 20
20.6767076458
 10
237.9968984138
 20
19.6655276296
 10
237.5387097487
 20
18.6626636434
 10
237.0396832392
 20
17.6724101047
 10
236.5019557932
 20
16.6990074313
 10
235.9278300423
 20
15.7466238827
 10
235.319764481
 20
14.8193377117
 10
234.6803629395
 20
13.9211196999
 10
234.0123634333
 20
13.0558161547
 10
233.3186264388
 20
12.2271324389
 10
232.6021226444
 20
11.4386171032
 10
231.8659202294
 20
10.6936466913
 10
231.1131717254
 20
9.9954112811
 10
230.3471005171
 20
9.3469008236
 10
229.5709870391
 20
8.7508923403
 10
228.7881547284
 20
8.2099380309
 10
228.0019557932
 20
7.7263543449
 10
227.215756858
 20
7.3022120618
 10
226.4329245473
 20
6.939327424
 10
225.6568110693
 20
6.6392543593
 10
224.890739861
 20
6.4032778265
 10
224.137991357
 20
6.2324083135
 10
223.4017889419
 20
6.1273775096
 10
222.6852851476
 20
6.088635173
 10
221.9915481531
 20
6.1163472042
 10
221.3235486469
 20
6.2103949362
 10
220.6841471054
 20
6.370375642
 10
220.0760815441
 20
6.5956042597
 10
219.5026465658
 20
6.8847174865
  0
LWPOLYLINE
  5
12A
330
1F
100
AcDbEntity
  8
0
  6
Continuous
 62
     1
370
    25
100
AcDbPolyline
 90
       30
 70
   128
 43
0.0
 10
240.4798565742
 20
29.6989780864
 10
240.5428481526
 20
29.1393278542
 10
240.5939508452
 20
28.2778927905
 10
240.5939508452
 20
27.3850045839
 10
240.5428481526
 20
26.4645676072
 10
240.4408662263
 20
25.5206066972
 10
240.2884510075
 20
24.5572495546
 10
240.086268969
 20
23.5787086953
 10
239.8352042016
 20
22.5892630294
 10
239.5363545475
 20
21.593239151
 10
239.1910268002
 20
20.5949924191
 10
238.8007309902
 20
19.5988879128
 10
238.3671737816
 20
18.6092813435
 10
237.89225101
 20
17.630500009
 10
237.3780393916
 20
16.666823871
 10
236.8267874431
 20
15.7224668401
 10
236.2409056489
 20
14.8015583494
 10
235.6229559212
 20
13.9081252972
 10
234.9756403968
 20
13.0460744391
 10
234.3017896218
 20
12.2191753041
 10
233.6043501742
 20
11.4310437117
 10
232.8863717793
 20
10.6851259609
 10
232.1509939738
 20
9.9846837601
 10
231.4014323779
 20
9.332779965
 10
230.6409646336
 20
8.7322651849
 10
229.872916073
 20
8.1857653181
 10
229.1006451769
 20
7.6956700696
 10
228.3275288895
 20
7.2641225012
 10
227.5569478516
 20
6.8930096605
 10
227.1048452066
 20
6.7030626111
  0
LWPOLYLINE
  5
12B
330
1F
100
AcDbEntity
  8
0
  6
Continuous
 62
     1
370
    25
100
AcDbPolyline
 90
       29
 70
   128
 43
0.0
 10
240.6954729296
 20
28.2388028809
 10
240.7198115318
 20
28.0636335129
 10
240.7970090933
 20
27.2600416987
 10
240.8227834706
 20
26.4226115464
 10
240.7970090933
 20
25.5554229316
 10
240.7198115318
 20
24.66270071
 10
240.5915668847
 20
23.7487941345
 10
240.412899947
 20
22.8181556661
 10
240.1846811662
 20
21.875319282
 10
239.9080224012
 20
20.9248783861
 10
239.5842715057
 20
19.971463431
 10
239.2150057615
 20
19.0197193586
 10
238.8020241942
 20
18.0742829701
 10
238.3473388085
 20
17.1397603368
 10
237.8531647859
 20
16.220704359
 10
237.3219096925
 20
15.3215925849
 10
236.7561617497
 20
14.4468053968
 10
236.1586772247
 20
13.60060467
 10
235.532367002
 20
12.7871130092
 10
234.8802824021
 20
12.0102936641
 10
234.2056003156
 20
11.2739312205
 10
233.5116077257
 20
10.5816131621
 10
232.8016856947
 20
9.936712393
 10
232.0792928912
 20
9.3423708049
 10
231.3479487405
 20
8.8014839703
 10
230.6112162777
 20
8.3166870354
 10
229.8726847893
 20
7.8903418821
 10
229.1359523265
 20
7.5245256213
 10
228.6072219874
 20
7.2990692105
  0
LWPOLYLINE
  5
12C
330
1F
100
AcDbEntity
  8
0
  6
Continuous
 62
     1
370
    25
100
AcDbPolyline
 90
       36
 70
   128
 43
0.0
 10
240.4115767034
 20
30.2127814538
 10
240.6371098332
 20
29.7527234341
 10
240.8872917398
 20
29.1129850536
 10
241.0889495374
 20
28.4268088734
 10
241.241078577
 20
27.6976133886
 10
241.3429209591
 20
26.9290314144
 10
241.3939693104
 20
26.1248919877
 10
241.3939693104
 20
25.2892012906
 10
241.3429209591
 20
24.4261226921
 10
241.241078577
 20
23.5399560063
 10
241.0889495374
 20
22.6351160712
 10
240.8872917398
 20
21.7161107538
 10
240.6371098332
 20
20.7875184922
 10
240.3396502111
 20
19.8539654866
 10
239.9963948024
 20
18.9201026509
 10
239.6090536885
 20
17.9905824429
 10
239.1795565831
 20
17.0700356854
 10
238.7100432192
 20
16.1630484962
 10
238.2028526889
 20
15.2741394397
 10
237.6605117898
 20
14.4077370162
 10
237.0857224371
 20
13.568157599
 10
236.4813482023
 20
12.7595839304
 10
235.8504000474
 20
11.9860442839
 10
235.1960213246
 20
11.2513923951
 10
234.5214721156
 20
10.5592882626
 10
233.8301129906
 20
9.9131799145
 10
233.1253882661
 20
9.3162862301
 10
232.4108088452
 20
8.7715809037
 10
231.6899347267
 20
8.2817776297
 10
230.966357269
 20
7.8493165836
 10
230.2436812987
 20
7.4763522644
 10
229.5255071512
 20
7.1647427617
 10
228.8154127339
 20
6.9160404982
 10
228.1169357015
 20
6.7314844963
 10
227.4335558314
 20
6.6119942045
 10
226.7807207237
 20
6.5585601864
  0
ENDSEC
  0
SECTION
  2
OBJECTS
  0
DICTIONARY
  5
C
330
0
100
AcDbDictionary
281
     1
  3
ACAD_GROUP
350
D
  3
ACAD_LAYOUT
350
1A
  3
ACAD_MLINESTYLE
350
17
  3
ACAD_PLOTSETTINGS
350
19
  3
ACAD_PLOTSTYLENAME
350
E
  3
ACAD_SCALELIST
350
47
  3
DWGPROPS
350
12D
  0
DICTIONARY
  5
D
102
{ACAD_REACTORS
330
C
102
}
330
C
100
AcDbDictionary
281
     1
  0
DICTIONARY
  5
1A
102
{ACAD_REACTORS
330
C
102
}
330
C
100
AcDbDictionary
281
     1
  3
Layout1
350
1E
  3
Layout2
350
26
  3
Model
350
22
  0
DICTIONARY
  5
17
102
{ACAD_REACTORS
330
C
102
}
330
C
100
AcDbDictionary
281
     1
  3
Standard
350
18
  0
DICTIONARY
  5
19
102
{ACAD_REACTORS
330
C
102
}
330
C
100
AcDbDictionary
281
     1
  0
ACDBDICTIONARYWDFLT
  5
E
102
{ACAD_REACTORS
330
C
102
}
330
C
100
AcDbDictionary
281
     1
  3
Normal
350
F
100
AcDbDictionaryWithDefault
340
F
  0
DICTIONARY
  5
47
102
{ACAD_REACTORS
330
C
102
}
330
C
100
AcDbDictionary
281
     1
  3
A0
350
48
  3
A1
350
49
  3
A2
350
4A
  3
A3
350
4B
  3
A4
350
4C
  3
A5
350
4D
  3
A6
350
4E
  3
A7
350
4F
  3
A8
350
50
  3
A9
350
51
  3
B0
350
52
  3
B1
350
53
  3
B2
350
54
  3
B3
350
55
  3
B4
350
56
  3
B5
350
57
  3
B6
350
58
  3
B7
350
59
  3
B8
350
5A
  3
B9
350
5B
  3
C0
350
5C
  3
C1
350
5D
  3
C2
350
5E
  3
C3
350
5F
  3
C4
350
60
  3
C5
350
61
  3
C6
350
62
  3
C7
350
63
  3
C8
350
64
  3
C9
350
65
  3
D0
350
66
  3
D1
350
67
  3
D2
350
68
  0
XRECORD
  5
12D
102
{ACAD_REACTORS
330
C
102
}
330
C
100
AcDbXrecord
280
     1
  1
DWGPROPS COOKIE
  2

  3

  4

  6

  7

  8
b.kav
  9

300
=
301
=
302
=
303
=
304
=
305
=
306
=
307
=
308
=
309
=
 40
0.0
 41
2459741.48465735
 42
2459741.484657523
  1

 90
        0
  0
LAYOUT
  5
1E
102
{ACAD_REACTORS
330
1A
102
}
330
1A
100
AcDbPlotSettings
  1

  2
none_device
  4

  6

 40
0.0
 41
0.0
 42
0.0
 43
0.0
 44
0.0
 45
0.0
 46
0.0
 47
0.0
 48
0.0
 49
0.0
140
0.0
141
0.0
142
1.0
143
1.0
 70
   688
 72
     1
 73
     0
 74
     5
  7

 75
    16
147
1.0
148
0.0
149
0.0
100
AcDbLayout
  1
Layout1
 70
     1
 71
     1
 10
0.0
 20
0.0
 11
420.0
 21
297.0
 12
0.0
 22
0.0
 32
0.0
 14
1.0000000000E+20
 24
1.0000000000E+20
 34
1.0000000000E+20
 15
-1.0000000000E+20
 25
-1.0000000000E+20
 35
-1.0000000000E+20
146
0.0
 13
0.0
 23
0.0
 33
0.0
 16
1.0
 26
0.0
 36
0.0
 17
0.0
 27
1.0
 37
0.0
 76
     0
330
1B
  0
LAYOUT
  5
26
102
{ACAD_REACTORS
330
1A
102
}
330
1A
100
AcDbPlotSettings
  1

  2
none_device
  4

  6

 40
0.0
 41
0.0
 42
0.0
 43
0.0
 44
0.0
 45
0.0
 46
0.0
 47
0.0
 48
0.0
 49
0.0
140
0.0
141
0.0
142
1.0
143
1.0
 70
   688
 72
     1
 73
     0
 74
     5
  7

 75
    16
147
1.0
148
0.0
149
0.0
100
AcDbLayout
  1
Layout2
 70
     1
 71
     2
 10
0.0
 20
0.0
 11
0.0
 21
0.0
 12
0.0
 22
0.0
 32
0.0
 14
0.0
 24
0.0
 34
0.0
 15
0.0
 25
0.0
 35
0.0
146
0.0
 13
0.0
 23
0.0
 33
0.0
 16
1.0
 26
0.0
 36
0.0
 17
0.0
 27
1.0
 37
0.0
 76
     0
330
23
  0
LAYOUT
  5
22
102
{ACAD_REACTORS
330
1A
102
}
330
1A
100
AcDbPlotSettings
  1

  2
none_device
  4
Letter_(8.50_x_11.00_Inches)
  6

 40
6.35
 41
6.35
 42
6.35000508
 43
6.35000508
 44
215.9
 45
279.4
 46
0.0
 47
0.0
 48
0.0
 49
0.0
140
0.0
141
0.0
142
1.0
143
1.0
 70
  1712
 72
     1
 73
     0
 74
     0
  7

 75
     0
147
1.0
148
0.0
149
0.0
100
AcDbLayout
  1
Model
 70
     1
 71
     0
 10
0.0
 20
0.0
 11
279.4
 21
215.9
 12
0.0
 22
0.0
 32
0.0
 14
0.0
 24
0.0
 34
0.0
 15
279.4
 25
215.9
 35
0.0
146
0.0
 13
0.0
 23
0.0
 33
0.0
 16
1.0
 26
0.0
 36
0.0
 17
0.0
 27
1.0
 37
0.0
 76
     0
330
1F
331
29
  0
MLINESTYLE
  5
18
102
{ACAD_REACTORS
330
17
102
}
330
17
100
AcDbMlineStyle
  2
Standard
 70
     0
  3

 62
   256
 51
90.0
 52
90.0
 71
     2
 49
0.5
 62
   256
  6
BYLAYER
 49
-0.5
 62
   256
  6
BYLAYER
  0
ACDBPLACEHOLDER
  5
F
102
{ACAD_REACTORS
330
E
102
}
330
E
  0
SCALE
  5
48
102
{ACAD_REACTORS
330
47
102
}
330
47
100
AcDbScale
 70
     0
300
1:1
140
1.0
141
1.0
290
     1
  0
SCALE
  5
49
102
{ACAD_REACTORS
330
47
102
}
330
47
100
AcDbScale
 70
     0
300
1:2
140
1.0
141
2.0
290
     0
  0
SCALE
  5
4A
102
{ACAD_REACTORS
330
47
102
}
330
47
100
AcDbScale
 70
     0
300
1:4
140
1.0
141
4.0
290
     0
  0
SCALE
  5
4B
102
{ACAD_REACTORS
330
47
102
}
330
47
100
AcDbScale
 70
     0
300
1:5
140
1.0
141
5.0
290
     0
  0
SCALE
  5
4C
102
{ACAD_REACTORS
330
47
102
}
330
47
100
AcDbScale
 70
     0
300
1:8
140
1.0
141
8.0
290
     0
  0
SCALE
  5
4D
102
{ACAD_REACTORS
330
47
102
}
330
47
100
AcDbScale
 70
     0
300
1:10
140
1.0
141
10.0
290
     0
  0
SCALE
  5
4E
102
{ACAD_REACTORS
330
47
102
}
330
47
100
AcDbScale
 70
     0
300
1:16
140
1.0
141
16.0
290
     0
  0
SCALE
  5
4F
102
{ACAD_REACTORS
330
47
102
}
330
47
100
AcDbScale
 70
     0
300
1:20
140
1.0
141
20.0
290
     0
  0
SCALE
  5
50
102
{ACAD_REACTORS
330
47
102
}
330
47
100
AcDbScale
 70
     0
300
1:30
140
1.0
141
30.0
290
     0
  0
SCALE
  5
51
102
{ACAD_REACTORS
330
47
102
}
330
47
100
AcDbScale
 70
     0
300
1:40
140
1.0
141
40.0
290
     0
  0
SCALE
  5
52
102
{ACAD_REACTORS
330
47
102
}
330
47
100
AcDbScale
 70
     0
300
1:50
140
1.0
141
50.0
290
     0
  0
SCALE
  5
53
102
{ACAD_REACTORS
330
47
102
}
330
47
100
AcDbScale
 70
     0
300
1:100
140
1.0
141
100.0
290
     0
  0
SCALE
  5
54
102
{ACAD_REACTORS
330
47
102
}
330
47
100
AcDbScale
 70
     0
300
2:1
140
2.0
141
1.0
290
     0
  0
SCALE
  5
55
102
{ACAD_REACTORS
330
47
102
}
330
47
100
AcDbScale
 70
     0
300
4:1
140
4.0
141
1.0
290
     0
  0
SCALE
  5
56
102
{ACAD_REACTORS
330
47
102
}
330
47
100
AcDbScale
 70
     0
300
8:1
140
8.0
141
1.0
290
     0
  0
SCALE
  5
57
102
{ACAD_REACTORS
330
47
102
}
330
47
100
AcDbScale
 70
     0
300
10:1
140
10.0
141
1.0
290
     0
  0
SCALE
  5
58
102
{ACAD_REACTORS
330
47
102
}
330
47
100
AcDbScale
 70
     0
300
100:1
140
100.0
141
1.0
290
     0
  0
SCALE
  5
59
102
{ACAD_REACTORS
330
47
102
}
330
47
100
AcDbScale
 70
     0
300
1/128" = 1'-0"
140
0.0078125
141
12.0
290
     0
  0
SCALE
  5
5A
102
{ACAD_REACTORS
330
47
102
}
330
47
100
AcDbScale
 70
     0
300
1/64" = 1'-0"
140
0.015625
141
12.0
290
     0
  0
SCALE
  5
5B
102
{ACAD_REACTORS
330
47
102
}
330
47
100
AcDbScale
 70
     0
300
1/32" = 1'-0"
140
0.03125
141
12.0
290
     0
  0
SCALE
  5
5C
102
{ACAD_REACTORS
330
47
102
}
330
47
100
AcDbScale
 70
     0
300
1/16" = 1'-0"
140
0.0625
141
12.0
290
     0
  0
SCALE
  5
5D
102
{ACAD_REACTORS
330
47
102
}
330
47
100
AcDbScale
 70
     0
300
3/32" = 1'-0"
140
0.09375
141
12.0
290
     0
  0
SCALE
  5
5E
102
{ACAD_REACTORS
330
47
102
}
330
47
100
AcDbScale
 70
     0
300
1/8" = 1'-0"
140
0.125
141
12.0
290
     0
  0
SCALE
  5
5F
102
{ACAD_REACTORS
330
47
102
}
330
47
100
AcDbScale
 70
     0
300
3/16" = 1'-0"
140
0.1875
141
12.0
290
     0
  0
SCALE
  5
60
102
{ACAD_REACTORS
330
47
102
}
330
47
100
AcDbScale
 70
     0
300
1/4" = 1'-0"
140
0.25
141
12.0
290
     0
  0
SCALE
  5
61
102
{ACAD_REACTORS
330
47
102
}
330
47
100
AcDbScale
 70
     0
300
3/8" = 1'-0"
140
0.375
141
12.0
290
     0
  0
SCALE
  5
62
102
{ACAD_REACTORS
330
47
102
}
330
47
100
AcDbScale
 70
     0
300
1/2" = 1'-0"
140
0.5
141
12.0
290
     0
  0
SCALE
  5
63
102
{ACAD_REACTORS
330
47
102
}
330
47
100
AcDbScale
 70
     0
300
3/4" = 1'-0"
140
0.75
141
12.0
290
     0
  0
SCALE
  5
64
102
{ACAD_REACTORS
330
47
102
}
330
47
100
AcDbScale
 70
     0
300
1" = 1'-0"
140
1.0
141
12.0
290
     0
  0
SCALE
  5
65
102
{ACAD_REACTORS
330
47
102
}
330
47
100
AcDbScale
 70
     0
300
1-1/2" = 1'-0"
140
1.5
141
12.0
290
     0
  0
SCALE
  5
66
102
{ACAD_REACTORS
330
47
102
}
330
47
100
AcDbScale
 70
     0
300
3" = 1'-0"
140
3.0
141
12.0
290
     0
  0
SCALE
  5
67
102
{ACAD_REACTORS
330
47
102
}
330
47
100
AcDbScale
 70
     0
300
6" = 1'-0"
140
6.0
141
12.0
290
     0
  0
SCALE
  5
68
102
{ACAD_REACTORS
330
47
102
}
330
47
100
AcDbScale
 70
     0
300
1'-0" = 1'-0"
140
12.0
141
12.0
290
     0
  0
ENDSEC
  0
EOF
